  0
SECTION
  2
HEADER
  9
$ACADVER
  1
AC1009
  9
$INSBASE
 10
0.0
 20
0.0
 30
0.0
  9
$EXTMIN
 10
-0.0123585888793514
 20
-0.0090630292066862
 30
-0.0015258207003583
  9
$EXTMAX
 10
420.01327615931308
 20
297.00906441222071
 30
0.0000000349246037
  9
$LIMMIN
 10
0.0
 20
0.0
  9
$LIMMAX
 10
420.0
 20
297.0
  9
$ORTHOMODE
 70
     0
  9
$REGENMODE
 70
     1
  9
$FILLMODE
 70
     1
  9
$QTEXTMODE
 70
     0
  9
$MIRRTEXT
 70
     1
  9
$DRAGMODE
 70
     2
  9
$LTSCALE
 40
0.2
  9
$OSMODE
 70
    63
  9
$ATTMODE
 70
     1
  9
$TEXTSIZE
 40
2.7999999999999989
  9
$TRACEWID
 40
1.0
  9
$TEXTSTYLE
  7
KCADTEXTSTANDARD
  9
$CLAYER
  8
0
  9
$CELTYPE
  6
CONTINUOUS
  9
$CECOLOR
 62
     2
  9
$DIMSCALE
 40
1.0
  9
$DIMASZ
 40
3.0
  9
$DIMEXO
 40
1.0
  9
$DIMDLI
 40
8.0
  9
$DIMRND
 40
0.0
  9
$DIMDLE
 40
0.0
  9
$DIMEXE
 40
1.0
  9
$DIMTP
 40
0.0
  9
$DIMTM
 40
0.0
  9
$DIMTXT
 40
2.7999999999999989
  9
$DIMCEN
 40
2.5
  9
$DIMTSZ
 40
0.0
  9
$DIMTOL
 70
     0
  9
$DIMLIM
 70
     0
  9
$DIMTIH
 70
     0
  9
$DIMTOH
 70
     0
  9
$DIMSE1
 70
     0
  9
$DIMSE2
 70
     0
  9
$DIMTAD
 70
     1
  9
$DIMZIN
 70
     8
  9
$DIMBLK
  1

  9
$DIMASO
 70
     1
  9
$DIMSHO
 70
     1
  9
$DIMPOST
  1

  9
$DIMAPOST
  1

  9
$DIMALT
 70
     0
  9
$DIMALTD
 70
     3
  9
$DIMALTF
 40
0.03937
  9
$DIMLFAC
 40
1.0
  9
$DIMTOFL
 70
     1
  9
$DIMTVP
 40
0.0
  9
$DIMTIX
 70
     0
  9
$DIMSOXD
 70
     0
  9
$DIMSAH
 70
     1
  9
$DIMBLK1
  1
OPEN30
  9
$DIMBLK2
  1
OPEN30
  9
$DIMSTYLE
  2
等倍
  9
$DIMCLRD
 70
   253
  9
$DIMCLRE
 70
   253
  9
$DIMCLRT
 70
   253
  9
$DIMTFAC
 40
0.7
  9
$DIMGAP
 40
0.8
  9
$LUNITS
 70
     2
  9
$LUPREC
 70
     4
  9
$SKETCHINC
 40
1.0
  9
$FILLETRAD
 40
5.0
  9
$AUNITS
 70
     0
  9
$AUPREC
 70
     0
  9
$MENU
  1
.
  9
$ELEVATION
 40
0.0
  9
$PELEVATION
 40
0.0
  9
$THICKNESS
 40
0.0
  9
$LIMCHECK
 70
     0
  9
$BLIPMODE
 70
     0
  9
$CHAMFERA
 40
5.0
  9
$CHAMFERB
 40
5.0
  9
$SKPOLY
 70
     0
  9
$TDCREATE
 40
2454702.2619938999
  9
$TDUPDATE
 40
2456423.6394093512
  9
$TDINDWG
 40
0.0547894444
  9
$TDUSRTIMER
 40
0.0547894444
  9
$USRTIMER
 70
     1
  9
$ANGBASE
 50
0.0
  9
$ANGDIR
 70
     0
  9
$PDMODE
 70
    33
  9
$PDSIZE
 40
-1.0
  9
$PLINEWID
 40
0.0
  9
$COORDS
 70
     0
  9
$SPLFRAME
 70
     0
  9
$SPLINETYPE
 70
     6
  9
$SPLINESEGS
 70
     8
  9
$ATTDIA
 70
     0
  9
$ATTREQ
 70
     1
  9
$HANDLING
 70
 22529
  9
$HANDSEED
  5
1BCE
  9
$SURFTAB1
 70
     6
  9
$SURFTAB2
 70
     6
  9
$SURFTYPE
 70
     6
  9
$SURFU
 70
     6
  9
$SURFV
 70
     6
  9
$UCSNAME
  2

  9
$UCSORG
 10
0.0
 20
0.0
 30
0.0
  9
$UCSXDIR
 10
1.0
 20
0.0
 30
0.0
  9
$UCSYDIR
 10
0.0
 20
1.0
 30
0.0
  9
$PUCSNAME
  2

  9
$PUCSORG
 10
0.0
 20
0.0
 30
0.0
  9
$PUCSXDIR
 10
1.0
 20
0.0
 30
0.0
  9
$PUCSYDIR
 10
0.0
 20
1.0
 30
0.0
  9
$USERI1
 70
     0
  9
$USERI2
 70
     0
  9
$USERI3
 70
     0
  9
$USERI4
 70
   257
  9
$USERI5
 70
     0
  9
$USERR1
 40
0.0
  9
$USERR2
 40
0.0
  9
$USERR3
 40
0.0
  9
$USERR4
 40
0.0
  9
$USERR5
 40
0.0
  9
$WORLDVIEW
 70
     1
  9
$SHADEDGE
 70
     3
  9
$SHADEDIF
 70
    70
  9
$TILEMODE
 70
     1
  9
$MAXACTVP
 70
    48
  9
$PLIMCHECK
 70
     0
  9
$PEXTMIN
 10
0.0
 20
0.0
 30
0.0
  9
$PEXTMAX
 10
0.0
 20
0.0
 30
0.0
  9
$PLIMMIN
 10
0.0
 20
0.0
  9
$PLIMMAX
 10
12.0
 20
9.0
  9
$UNITMODE
 70
     0
  9
$VISRETAIN
 70
     1
  9
$PLINEGEN
 70
     0
  9
$PSLTSCALE
 70
     1
  0
ENDSEC
  0
SECTION
  2
TABLES
  0
TABLE
  2
VPORT
 70
    15
  0
VPORT
  2
*ACTIVE
 70
     0
 10
0.0
 20
0.0
 11
1.0
 21
1.0
 12
210.00045878521689
 22
148.50000069150701
 13
0.0
 23
0.0
 14
10.0
 24
10.0
 15
10.0
 25
10.0
 16
0.0
 26
0.0
 36
1.0
 17
0.0
 27
0.0
 37
0.0
 40
300.39333343507991
 41
2.387096774193548
 42
50.0
 43
0.0
 44
0.0
 50
0.0
 51
0.0
 71
     0
 72
 20000
 73
     1
 74
     1
 75
     0
 76
     0
 77
     0
 78
     0
  0
ENDTAB
  0
TABLE
  2
LTYPE
 70
     6
  0
LTYPE
  2
CONTINUOUS
 70
     0
  3
Solid line
 72
    65
 73
     0
 40
0.0
  0
LTYPE
  2
CENTER
 70
     0
  3
Center ____ _ ____ _ ____ _ ____ _ ____ _ ____
 72
    65
 73
     4
 40
50.799999999999997
 49
31.75
 49
-6.3499999999999988
 49
6.3499999999999988
 49
-6.3499999999999988
  0
LTYPE
  2
DASHED
 70
     0
  3
Dashed __ __ __ __ __ __ __ __ __ __ __ __ __ _
 72
    65
 73
     2
 40
19.050000000000001
 49
12.699999999999999
 49
-6.3499999999999988
  0
LTYPE
  2
HIDDEN
 70
     0
  3
Hidden __ __ __ __ __ __ __ __ __ __ __ __ __ _
 72
    65
 73
     2
 40
9.5250000000000004
 49
6.3499999999999988
 49
-3.1749999999999989
  0
LTYPE
  2
PHANTOM
 70
     0
  3
Phantom ______  __  __  ______  __  __  ______
 72
    65
 73
     6
 40
63.5
 49
31.75
 49
-6.3499999999999988
 49
6.3499999999999988
 49
-6.3499999999999988
 49
6.3499999999999988
 49
-6.3499999999999988
  0
LTYPE
  2
RUPTURE
 70
     0
  3
Rupture line
 72
    65
 73
     4
 40
45.719999999999999
 49
25.399999999999999
 49
-5.0800000000000001
 49
-10.16
 49
-5.0800000000000001
  0
ENDTAB
  0
TABLE
  2
LAYER
 70
    16
  0
LAYER
  2
0
 70
     0
 62
     7
  6
CONTINUOUS
  0
LAYER
  2
KCAD_DIMS
 70
     0
 62
   253
  6
CONTINUOUS
  0
LAYER
  2
DEFPOINTS
 70
     0
 62
     7
  6
CONTINUOUS
  0
LAYER
  2
KCAD_ASST
 70
     0
 62
   253
  6
CONTINUOUS
  0
LAYER
  2
KCAD_RASTER
 70
     0
 62
     7
  6
CONTINUOUS
  0
LAYER
  2
SYBCENTER
 70
     0
 62
   253
  6
CENTER
  0
LAYER
  2
SYBHIDE
 70
     0
 62
     7
  6
HIDDEN
  0
LAYER
  2
SYBOUTLINE
 70
     0
 62
     7
  6
CONTINUOUS
  0
LAYER
  2
SYBTHREAD
 70
     0
 62
   253
  6
CONTINUOUS
  0
LAYER
  2
SYBTHRHID
 70
     0
 62
   253
  6
HIDDEN
  0
LAYER
  2
KCAD_UIR_TMP_LAYER_
 70
     0
 62
     7
  6
CONTINUOUS
  0
LAYER
  2
KCAD_ZUWAKU
 70
     4
 62
     1
  6
CONTINUOUS
  0
LAYER
  2
KCAD_CPM_MAX_LAYER
 70
     3
 62
     7
  6
CONTINUOUS
  0
LAYER
  2
4
 70
     0
 62
     7
  6
CONTINUOUS
  0
LAYER
  2
2
 70
     0
 62
     7
  6
CONTINUOUS
  0
LAYER
  2
1
 70
     0
 62
     7
  6
CONTINUOUS
  0
ENDTAB
  0
TABLE
  2
STYLE
 70
     5
  0
STYLE
  2
STANDARD
 70
     0
 40
0.0
 41
1.0
 50
0.0
 71
     0
 42
3.2000000000000002
  3
txt.shx
  4
bigfont.shx
  0
STYLE
  2

 70
     1
 40
0.0
 41
1.0
 50
0.0
 71
     0
 42
3.2000000000000002
  3
ltypeshp.shx
  4

  0
STYLE
  2
KCADDIMSTANDARD
 70
     0
 40
0.0
 41
0.8
 50
15.0
 71
     0
 42
3.2000000000000002
  3
monotxt.shx
  4
bigfont.shx
  0
STYLE
  2
KCADTEXTSTANDARD
 70
     0
 40
0.0
 41
0.8
 50
0.0
 71
     0
 42
2.7999999999999989
  3
monotxt.shx
  4
bigfont.shx
  0
STYLE
  2
KCADTEXT2
 70
     0
 40
0.0
 41
0.8
 50
0.0
 71
     0
 42
3.2000000000000002
  3
monotxt.shx
  4
extfont.shx
  0
ENDTAB
  0
TABLE
  2
VIEW
 70
     0
  0
ENDTAB
  0
TABLE
  2
UCS
 70
     0
  0
ENDTAB
  0
TABLE
  2
APPID
 70
     2
  0
APPID
  2
ACAD
 70
     0
  0
APPID
  2
SIGMA
 70
     0
  0
ENDTAB
  0
TABLE
  2
DIMSTYLE
 70
     2
  0
DIMSTYLE
  2
STANDARD
 70
     0
  3

  4

  5

  6

  7

 40
1.0
 41
0.18
 42
0.0625
 43
0.38
 44
0.18
 45
0.0
 46
0.0
 47
0.0
 48
0.0
140
0.18
141
0.09
142
0.0
143
25.399999999999999
144
1.0
145
0.0
146
1.0
147
0.09
 71
     0
 72
     0
 73
     1
 74
     1
 75
     0
 76
     0
 77
     0
 78
     0
170
     0
171
     2
172
     0
173
     0
174
     0
175
     0
176
     0
177
     0
178
     0
  0
DIMSTYLE
  2
等倍
 70
     0
  3

  4

  5

  6
OPEN30
  7
OPEN30
 40
1.0
 41
3.0
 42
1.0
 43
8.0
 44
1.0
 45
0.0
 46
0.0
 47
0.0
 48
0.0
140
2.7999999999999989
141
2.5
142
0.0
143
0.03937
144
1.0
145
0.0
146
0.7
147
0.8
 71
     0
 72
     0
 73
     0
 74
     0
 75
     0
 76
     0
 77
     1
 78
     8
170
     0
171
     3
172
     1
173
     1
174
     0
175
     0
176
   253
177
   253
178
   253
  0
ENDTAB
  0
ENDSEC
  0
SECTION
  2
BLOCKS
  0
BLOCK
  8
0
  2
$MODEL_SPACE
 70
     0
 10
0.0
 20
0.0
 30
0.0
  3
$MODEL_SPACE
  1

  0
ENDBLK
  5
1A
  8
0
  0
BLOCK
 67
     1
  8
0
 62
    54
  2
$PAPER_SPACE
 70
     0
 10
0.0
 20
0.0
 30
0.0
  3
$PAPER_SPACE
  1

  0
ENDBLK
  5
22E
 67
     1
  8
0
 62
    54
  0
BLOCK
  8
KCAD_DIMS
  2
KCAD_OPEN
 70
     0
 10
0.0
 20
0.0
 30
0.0
  3
KCAD_OPEN
  1

  0
LINE
  5
22
  8
0
  6
CONTINUOUS
 62
     0
 10
0.0
 20
0.0
 30
0.0
 11
-1.0
 21
0.0
 31
0.0
  0
LINE
  5
23
  8
0
  6
CONTINUOUS
 62
     0
 10
0.0
 20
0.0
 30
0.0
 11
-1.0
 21
0.158384
 31
0.0
  0
LINE
  5
24
  8
0
  6
CONTINUOUS
 62
     0
 10
0.0
 20
0.0
 30
0.0
 11
-1.0
 21
-0.158384
 31
0.0
  0
ENDBLK
  5
26
  8
KCAD_DIMS
  0
BLOCK
  8
KCAD_DIMS
  2
KCAD_DOTSMALL
 70
     0
 10
0.0
 20
0.0
 30
0.0
  3
KCAD_DOTSMALL
  1

  0
POLYLINE
  5
3D
  8
KCAD_DIMS
 62
     0
 66
     1
 10
0.0
 20
0.0
 30
0.0
 70
     1
 40
0.5
 41
0.5
  0
VERTEX
  5
1BC0
  8
KCAD_DIMS
 62
     0
 10
0.06252
 20
0.0
 30
0.0
 42
1.0
  0
VERTEX
  5
1BC1
  8
KCAD_DIMS
 62
     0
 10
-0.06262
 20
0.0
 30
0.0
 42
1.0
  0
SEQEND
  5
1BC2
  8
KCAD_DIMS
 62
     0
  0
LINE
  5
41
  8
0
  6
CONTINUOUS
 62
     0
 10
0.0
 20
0.0
 30
0.0
 11
-1.0
 21
0.0
 31
0.0
  0
ENDBLK
  5
43
  8
0
  0
BLOCK
  8
KCAD_DIMS
  2
KCAD_NONE
 70
     0
 10
0.0
 20
0.0
 30
0.0
  3
KCAD_NONE
  1

  0
LINE
  5
45
  8
0
  6
CONTINUOUS
 62
     0
 10
0.0
 20
0.0
 30
0.0
 11
-1.0
 21
0.0
 31
0.0
  0
ENDBLK
  5
47
  8
0
  0
BLOCK
  8
0
  2
_CLOSED
 70
     0
 10
0.0
 20
0.0
 30
0.0
  3
_CLOSED
  1

  0
LINE
  5
FE
  8
0
  6
CONTINUOUS
 62
     0
 10
-1.0
 20
0.166667
 30
0.0
 11
0.0
 21
0.0
 31
0.0
  0
LINE
  5
FF
  8
0
  6
CONTINUOUS
 62
     0
 10
0.0
 20
0.0
 30
0.0
 11
-1.0
 21
-0.166667
 31
0.0
  0
LINE
  5
100
  8
0
  6
CONTINUOUS
 62
     0
 10
-1.0
 20
0.166667
 30
0.0
 11
-1.0
 21
-0.166667
 31
0.0
  0
LINE
  5
101
  8
0
  6
CONTINUOUS
 62
     0
 10
0.0
 20
0.0
 30
0.0
 11
-1.0
 21
0.0
 31
0.0
  0
ENDBLK
  5
102
  8
0
  0
BLOCK
  8
0
  2
_DOT
 70
     0
 10
0.0
 20
0.0
 30
0.0
  3
_DOT
  1

  0
POLYLINE
  5
105
  8
0
  6
BYBLOCK
 62
     0
 66
     1
 10
0.0
 20
0.0
 30
0.0
 70
     1
 40
0.5
 41
0.5
  0
VERTEX
  5
1BC3
  8
0
  6
BYBLOCK
 62
     0
 10
-0.25
 20
0.0
 30
0.0
 42
1.0
  0
VERTEX
  5
1BC4
  8
0
  6
BYBLOCK
 62
     0
 10
0.25
 20
0.0
 30
0.0
 42
1.0
  0
SEQEND
  5
1BC5
  8
0
  6
BYBLOCK
 62
     0
  0
LINE
  5
109
  8
0
  6
CONTINUOUS
 62
     0
 10
-0.5
 20
0.0
 30
0.0
 11
-1.0
 21
0.0
 31
0.0
  0
ENDBLK
  5
10A
  8
0
  0
BLOCK
  8
0
  2
_CLOSEDBLANK
 70
     0
 10
0.0
 20
0.0
 30
0.0
  3
_CLOSEDBLANK
  1

  0
LINE
  5
10D
  8
0
  6
CONTINUOUS
 62
     0
 10
-1.0
 20
0.166667
 30
0.0
 11
0.0
 21
0.0
 31
0.0
  0
LINE
  5
10E
  8
0
  6
CONTINUOUS
 62
     0
 10
0.0
 20
0.0
 30
0.0
 11
-1.0
 21
-0.166667
 31
0.0
  0
LINE
  5
10F
  8
0
  6
CONTINUOUS
 62
     0
 10
-1.0
 20
0.166667
 30
0.0
 11
-1.0
 21
-0.166667
 31
0.0
  0
ENDBLK
  5
110
  8
0
  0
BLOCK
  8
0
  2
_OBLIQUE
 70
     0
 10
0.0
 20
0.0
 30
0.0
  3
_OBLIQUE
  1

  0
LINE
  5
113
  8
0
  6
CONTINUOUS
 62
     0
 10
-0.5
 20
-0.5
 30
0.0
 11
0.5
 21
0.5
 31
0.0
  0
ENDBLK
  5
114
  8
0
  0
BLOCK
  8
0
  2
_ARCHTICK
 70
     0
 10
0.0
 20
0.0
 30
0.0
  3
_ARCHTICK
  1

  0
POLYLINE
  5
117
  8
0
  6
BYBLOCK
 62
     0
 66
     1
 10
0.0
 20
0.0
 30
0.0
 40
0.15
 41
0.15
  0
VERTEX
  5
1BC6
  8
0
  6
BYBLOCK
 62
     0
 10
-0.5
 20
-0.5
 30
0.0
  0
VERTEX
  5
1BC7
  8
0
  6
BYBLOCK
 62
     0
 10
0.5
 20
0.5
 30
0.0
  0
SEQEND
  5
1BC8
  8
0
  6
BYBLOCK
 62
     0
  0
ENDBLK
  5
11B
  8
0
  0
BLOCK
  8
0
  2
_OPEN
 70
     0
 10
0.0
 20
0.0
 30
0.0
  3
_OPEN
  1

  0
LINE
  5
11E
  8
0
  6
CONTINUOUS
 62
     0
 10
-1.0
 20
0.166667
 30
0.0
 11
0.0
 21
0.0
 31
0.0
  0
LINE
  5
11F
  8
0
  6
CONTINUOUS
 62
     0
 10
0.0
 20
0.0
 30
0.0
 11
-1.0
 21
-0.166667
 31
0.0
  0
LINE
  5
120
  8
0
  6
CONTINUOUS
 62
     0
 10
0.0
 20
0.0
 30
0.0
 11
-1.0
 21
0.0
 31
0.0
  0
ENDBLK
  5
121
  8
0
  0
BLOCK
  8
0
  2
_ORIGIN
 70
     0
 10
0.0
 20
0.0
 30
0.0
  3
_ORIGIN
  1

  0
CIRCLE
  5
124
  8
0
  6
BYBLOCK
 62
     0
 10
0.0
 20
0.0
 30
0.0
 40
0.5
  0
LINE
  5
125
  8
0
  6
CONTINUOUS
 62
     0
 10
0.0
 20
0.0
 30
0.0
 11
-1.0
 21
0.0
 31
0.0
  0
ENDBLK
  5
126
  8
0
  0
BLOCK
  8
0
  2
_OPEN90
 70
     0
 10
0.0
 20
0.0
 30
0.0
  3
_OPEN90
  1

  0
LINE
  5
129
  8
0
  6
CONTINUOUS
 62
     0
 10
-0.5
 20
0.5
 30
0.0
 11
0.0
 21
0.0
 31
0.0
  0
LINE
  5
12A
  8
0
  6
CONTINUOUS
 62
     0
 10
0.0
 20
0.0
 30
0.0
 11
-0.5
 21
-0.5
 31
0.0
  0
LINE
  5
12B
  8
0
  6
CONTINUOUS
 62
     0
 10
0.0
 20
0.0
 30
0.0
 11
-1.0
 21
0.0
 31
0.0
  0
ENDBLK
  5
12C
  8
0
  0
BLOCK
  8
0
  2
_OPEN30
 70
     0
 10
0.0
 20
0.0
 30
0.0
  3
_OPEN30
  1

  0
LINE
  5
12F
  8
0
  6
CONTINUOUS
 62
     0
 10
-1.0
 20
0.267949
 30
0.0
 11
0.0
 21
0.0
 31
0.0
  0
LINE
  5
130
  8
0
  6
CONTINUOUS
 62
     0
 10
0.0
 20
0.0
 30
0.0
 11
-1.0
 21
-0.267949
 31
0.0
  0
LINE
  5
131
  8
0
  6
CONTINUOUS
 62
     0
 10
0.0
 20
0.0
 30
0.0
 11
-1.0
 21
0.0
 31
0.0
  0
ENDBLK
  5
132
  8
0
  0
BLOCK
  8
0
  2
_DOTBLANK
 70
     0
 10
0.0
 20
0.0
 30
0.0
  3
_DOTBLANK
  1

  0
CIRCLE
  5
135
  8
0
  6
BYBLOCK
 62
     0
 10
0.0
 20
0.0
 30
0.0
 40
0.5
  0
LINE
  5
136
  8
0
  6
CONTINUOUS
 62
     0
 10
-0.5
 20
0.0
 30
0.0
 11
-1.0
 21
0.0
 31
0.0
  0
ENDBLK
  5
137
  8
0
  0
BLOCK
  8
0
  2
_DOTSMALL
 70
     0
 10
0.0
 20
0.0
 30
0.0
  3
_DOTSMALL
  1

  0
POLYLINE
  5
13A
  8
0
  6
BYBLOCK
 62
     0
 66
     1
 10
0.0
 20
0.0
 30
0.0
 70
     1
 40
0.5
 41
0.5
  0
VERTEX
  5
1BC9
  8
0
  6
BYBLOCK
 62
     0
 10
-0.0625
 20
0.0
 30
0.0
 42
1.0
  0
VERTEX
  5
1BCA
  8
0
  6
BYBLOCK
 62
     0
 10
0.0625
 20
0.0
 30
0.0
 42
1.0
  0
SEQEND
  5
1BCB
  8
0
  6
BYBLOCK
 62
     0
  0
ENDBLK
  5
13E
  8
0
  0
BLOCK
  8
0
  2
_BOXFILLED
 70
     0
 10
0.0
 20
0.0
 30
0.0
  3
_BOXFILLED
  1

  0
SOLID
  5
141
  8
0
  6
BYBLOCK
 62
     0
 10
-0.5
 20
0.5
 30
0.0
 11
0.5
 21
0.5
 31
0.0
 12
-0.5
 22
-0.5
 32
0.0
 13
0.5
 23
-0.5
 33
0.0
  0
LINE
  5
142
  8
0
  6
CONTINUOUS
 62
     0
 10
-0.5
 20
0.0
 30
0.0
 11
-1.0
 21
0.0
 31
0.0
  0
ENDBLK
  5
143
  8
0
  0
BLOCK
  8
0
  2
_BOXBLANK
 70
     0
 10
0.0
 20
0.0
 30
0.0
  3
_BOXBLANK
  1

  0
LINE
  5
146
  8
0
  6
CONTINUOUS
 62
     0
 10
-0.5
 20
-0.5
 30
0.0
 11
0.5
 21
-0.5
 31
0.0
  0
LINE
  5
147
  8
0
  6
CONTINUOUS
 62
     0
 10
0.5
 20
-0.5
 30
0.0
 11
0.5
 21
0.5
 31
0.0
  0
LINE
  5
148
  8
0
  6
CONTINUOUS
 62
     0
 10
0.5
 20
0.5
 30
0.0
 11
-0.5
 21
0.5
 31
0.0
  0
LINE
  5
149
  8
0
  6
CONTINUOUS
 62
     0
 10
-0.5
 20
0.5
 30
0.0
 11
-0.5
 21
-0.5
 31
0.0
  0
LINE
  5
14A
  8
0
  6
CONTINUOUS
 62
     0
 10
-0.5
 20
0.0
 30
0.0
 11
-1.0
 21
0.0
 31
0.0
  0
ENDBLK
  5
14B
  8
0
  0
BLOCK
  8
0
  2
_DATUMFILLED
 70
     0
 10
0.0
 20
0.0
 30
0.0
  3
_DATUMFILLED
  1

  0
SOLID
  5
14E
  8
0
  6
BYBLOCK
 62
     0
 10
0.0
 20
0.5773500000000001
 30
0.0
 11
-1.0
 21
0.0
 31
0.0
 12
0.0
 22
-0.5773500000000001
 32
0.0
 13
0.0
 23
-0.5773500000000001
 33
0.0
  0
ENDBLK
  5
14F
  8
0
  0
BLOCK
  8
0
  2
_DATUMBLANK
 70
     0
 10
0.0
 20
0.0
 30
0.0
  3
_DATUMBLANK
  1

  0
LINE
  5
152
  8
0
  6
CONTINUOUS
 62
     0
 10
0.0
 20
0.5773500000000001
 30
0.0
 11
-1.0
 21
0.0
 31
0.0
  0
LINE
  5
153
  8
0
  6
CONTINUOUS
 62
     0
 10
-1.0
 20
0.0
 30
0.0
 11
0.0
 21
-0.5773500000000001
 31
0.0
  0
LINE
  5
154
  8
0
  6
CONTINUOUS
 62
     0
 10
0.0
 20
-0.5773500000000001
 30
0.0
 11
0.0
 21
0.5773500000000001
 31
0.0
  0
ENDBLK
  5
155
  8
0
  0
BLOCK
  8
0
  2
_INTEGRAL
 70
     0
 10
0.0
 20
0.0
 30
0.0
  3
_INTEGRAL
  1

  0
ARC
  5
158
  8
0
  6
BYBLOCK
 62
     0
 10
0.444888
 20
-0.091335
 30
0.0
 40
0.454167
 50
102.0
 51
168.0
  0
ARC
  5
159
  8
0
  6
BYBLOCK
 62
     0
 10
-0.444888
 20
0.091335
 30
0.0
 40
0.454167
 50
282.0
 51
348.0
  0
ENDBLK
  5
15A
  8
0
  0
BLOCK
  8
0
 62
     7
  2
_ORIGIN2
 70
     0
 10
0.0
 20
0.0
 30
0.0
  3
_ORIGIN2
  1

  0
CIRCLE
  5
1F2
  8
0
  6
CONTINUOUS
 62
     0
 10
0.0
 20
0.0
 30
0.0
 40
0.5
  0
CIRCLE
  5
1F3
  8
0
  6
CONTINUOUS
 62
     0
 10
0.0
 20
0.0
 30
0.0
 40
0.25
  0
LINE
  5
1F4
  8
0
  6
CONTINUOUS
 62
     0
 10
-0.5
 20
0.0
 30
0.0
 11
-1.0
 21
0.0
 31
0.0
  0
ENDBLK
  5
1F6
  8
0
 62
     7
  0
BLOCK
  8
0
 62
     7
  2
KCAD_OPEN30
 70
     0
 10
0.0
 20
0.0
 30
0.0
  3
KCAD_OPEN30
  1

  0
LINE
  5
1F8
  8
0
  6
CONTINUOUS
 62
     0
 10
0.0
 20
0.0
 30
0.0
 11
-1.0
 21
0.0
 31
0.0
  0
LINE
  5
1F9
  8
0
  6
CONTINUOUS
 62
     0
 10
0.0
 20
0.0
 30
0.0
 11
-1.0
 21
0.2679491924311227
 31
0.0
  0
LINE
  5
1FA
  8
0
  6
CONTINUOUS
 62
     0
 10
0.0
 20
0.0
 30
0.0
 11
-1.0
 21
-0.2679491924311227
 31
0.0
  0
ENDBLK
  5
1FC
  8
0
 62
     7
  0
BLOCK
  8
0
 62
    54
  2
_NONE
 70
     0
 10
0.0
 20
0.0
 30
0.0
  3
_NONE
  1

  0
ENDBLK
  5
224
  8
0
 62
    54
  0
BLOCK
  8
0
 62
     7
  2
_SMALL
 70
     0
 10
0.0
 20
0.0
 30
0.0
  3
_SMALL
  1

  0
CIRCLE
  5
284
  8
0
  6
BYBLOCK
 62
     0
 10
0.0
 20
0.0
 30
0.0
 40
0.25
  0
ENDBLK
  5
286
  8
0
 62
     7
  0
BLOCK
  8
0
 62
     7
  2
KCAD_OPEN_2
 70
     0
 10
0.0
 20
0.0
 30
0.0
  3
KCAD_OPEN_2
  1

  0
LINE
  5
288
  8
0
  6
CONTINUOUS
 62
     0
 10
0.0
 20
0.0
 30
0.0
 11
-2.0
 21
0.0
 31
0.0
  0
LINE
  5
289
  8
0
  6
CONTINUOUS
 62
     0
 10
0.0
 20
0.0
 30
0.0
 11
-2.0
 21
0.3167688806490725
 31
0.0
  0
LINE
  5
28A
  8
0
  6
CONTINUOUS
 62
     0
 10
0.0
 20
0.0
 30
0.0
 11
-2.0
 21
-0.3167688806490725
 31
0.0
  0
LINE
  5
28B
  8
0
  6
CONTINUOUS
 62
     0
 10
-2.0
 20
0.0
 30
0.0
 11
-4.0
 21
0.0
 31
0.0
  0
ENDBLK
  5
28D
  8
0
 62
     7
  0
BLOCK
  8
0
 62
     7
  2
KCAD_OPEN30_2
 70
     0
 10
0.0
 20
0.0
 30
0.0
  3
KCAD_OPEN30_2
  1

  0
LINE
  5
28F
  8
0
  6
CONTINUOUS
 62
     0
 10
0.0
 20
0.0
 30
0.0
 11
-2.0
 21
0.0
 31
0.0
  0
LINE
  5
290
  8
0
  6
CONTINUOUS
 62
     0
 10
0.0
 20
0.0
 30
0.0
 11
-2.0
 21
0.5358983848622455
 31
0.0
  0
LINE
  5
291
  8
0
  6
CONTINUOUS
 62
     0
 10
0.0
 20
0.0
 30
0.0
 11
-2.0
 21
-0.5358983848622455
 31
0.0
  0
LINE
  5
292
  8
0
  6
CONTINUOUS
 62
     0
 10
-2.0
 20
0.0
 30
0.0
 11
-4.0
 21
0.0
 31
0.0
  0
ENDBLK
  5
294
  8
0
 62
     7
  0
ENDSEC
  0
SECTION
  2
ENTITIES
  0
POLYLINE
  5
2A7
  8
KCAD_ZUWAKU
 66
     1
 10
0.0
 20
0.0
 30
0.0
 70
     1
  0
VERTEX
  5
2A8
  8
KCAD_ZUWAKU
 10
0.0
 20
0.0
 30
0.0
  0
VERTEX
  5
2A9
  8
KCAD_ZUWAKU
 10
420.0
 20
0.0
 30
0.0
  0
VERTEX
  5
2AA
  8
KCAD_ZUWAKU
 10
420.0
 20
297.0
 30
0.0
  0
VERTEX
  5
2AB
  8
KCAD_ZUWAKU
 10
0.0
 20
297.0
 30
0.0
  0
SEQEND
  5
2AC
  8
KCAD_ZUWAKU
  0
POLYLINE
  5
2D2
  8
KCAD_ZUWAKU
  6
CONTINUOUS
 66
     1
 10
0.0
 20
0.0
 30
0.0
 70
     1
  0
VERTEX
  5
2D3
  8
KCAD_ZUWAKU
  6
CONTINUOUS
 10
0.0
 20
0.0
 30
0.0
  0
VERTEX
  5
2D4
  8
KCAD_ZUWAKU
  6
CONTINUOUS
 10
420.0
 20
0.0
 30
0.0
  0
VERTEX
  5
2D5
  8
KCAD_ZUWAKU
  6
CONTINUOUS
 10
420.0
 20
297.0
 30
0.0
  0
VERTEX
  5
2D6
  8
KCAD_ZUWAKU
  6
CONTINUOUS
 10
0.0
 20
297.0
 30
0.0
  0
SEQEND
  5
2D7
  8
KCAD_ZUWAKU
  6
CONTINUOUS
  0
LINE
  5
1A91
  8
0
  6
CONTINUOUS
 62
     3
 10
170.25000000000449
 20
247.19999999999899
 30
0.0
 11
170.25
 21
286.80000000000041
 31
0.0
  0
LINE
  5
1A92
  8
0
  6
CONTINUOUS
 62
     3
 10
165.25
 20
247.19999999999979
 30
0.0
 11
165.2500000000002
 21
286.79999999999978
 31
0.0
  0
LINE
  5
1A93
  8
0
  6
CONTINUOUS
 62
     3
 10
171.25
 20
247.19999999999931
 30
0.0
 11
171.25
 21
286.80000000000041
 31
0.0
  0
LINE
  5
1A94
  8
0
  6
CONTINUOUS
 62
     3
 10
134.74999999999989
 20
247.19999999999979
 30
0.0
 11
134.74999999999989
 21
286.79999999999978
 31
0.0
  0
LINE
  5
1A95
  8
0
  6
CONTINUOUS
 62
     3
 10
128.7500000000002
 20
247.19999999999931
 30
0.0
 11
128.75
 21
286.80000000000041
 31
0.0
  0
LINE
  5
1A96
  8
0
  6
CONTINUOUS
 62
     3
 10
129.74999999999591
 20
247.19999999999899
 30
0.0
 11
129.7500000000002
 21
286.80000000000041
 31
0.0
  0
LINE
  5
1A97
  8
0
  6
CONTINUOUS
 62
     3
 10
135.25
 20
241.9344266927244
 30
0.0
 11
164.74999999999989
 21
241.9344266927244
 31
0.0
  0
LINE
  5
1A98
  8
0
  6
CONTINUOUS
 62
     3
 10
134.95000000000019
 20
247.0
 30
0.0
 11
165.0500000000001
 21
247.0
 31
0.0
  0
LINE
  5
1A99
  8
0
  6
HIDDEN
 62
     2
 10
145.9999999999998
 20
231.93442669272449
 30
0.0
 11
153.9999999999998
 21
231.93442669272449
 31
0.0
  0
LINE
  5
1A9A
  8
0
  6
CONTINUOUS
 62
     3
 10
55.499999999999979
 20
227.93442669272429
 30
0.0
 11
204.49999999999989
 21
227.93442669272429
 31
0.0
  0
LINE
  5
1A9B
  8
0
  6
CONTINUOUS
 62
     3
 10
134.94999999999999
 20
231.9344266927244
 30
0.0
 11
165.0500000000001
 21
231.9344266927244
 31
0.0
  0
LINE
  5
1A9C
  8
0
  6
CONTINUOUS
 62
     3
 10
41.800000000000161
 20
237.41075367343331
 30
0.0
 11
18.199999999999928
 21
237.41075367343331
 31
0.0
  0
LINE
  5
1A9D
  8
0
  6
CONTINUOUS
 62
     3
 10
41.800000000000161
 20
237.2344266927247
 30
0.0
 11
18.199999999999811
 21
237.2344266927249
 31
0.0
  0
LINE
  5
1A9E
  8
0
  6
CONTINUOUS
 62
     3
 10
41.800000000000161
 20
236.43442669272471
 30
0.0
 11
18.199999999999811
 21
236.434426692725
 31
0.0
  0
LINE
  5
1A9F
  8
0
  6
CONTINUOUS
 62
     3
 10
37.899999999999963
 20
241.9344266927244
 30
0.0
 11
49.499999999999993
 21
241.9344266927244
 31
0.0
  0
LINE
  5
1AA0
  8
0
  6
CONTINUOUS
 62
     3
 10
10.600000000000129
 20
241.53442669272511
 30
0.0
 11
49.400000000000077
 21
241.53442669272511
 31
0.0
  0
LINE
  5
1AA1
  8
0
  6
CONTINUOUS
 62
     3
 10
21.296008444520901
 20
227.9344266927244
 30
0.0
 11
41.499999999999979
 21
227.93442669272449
 31
0.0
  0
LINE
  5
1AA2
  8
0
  6
CONTINUOUS
 62
     3
 10
22.100000000000001
 20
241.9344266927244
 30
0.0
 11
10.5
 21
241.9344266927244
 31
0.0
  0
LINE
  5
1AA3
  8
0
  6
CONTINUOUS
 62
     3
 10
10.5999999999999
 20
232.0344266927244
 30
0.0
 11
17.800000000000061
 21
232.03442669272431
 31
0.0
  0
LINE
  5
1AA4
  8
0
  6
CONTINUOUS
 62
     3
 10
17.099999999999788
 20
231.9344266927244
 30
0.0
 11
10.5
 21
231.9344266927244
 31
0.0
  0
LINE
  5
1AA5
  8
0
  6
CONTINUOUS
 62
     3
 10
10.5999999999999
 20
241.53442669272511
 30
0.0
 11
10.199999999999809
 21
241.13442669272499
 31
0.0
  0
LINE
  5
1AA6
  8
0
  6
CONTINUOUS
 62
     3
 10
10.5
 20
241.9344266927244
 30
0.0
 11
9.9999999999998863
 21
241.43442669272409
 31
0.0
  0
ARC
  5
1AA7
  8
0
  6
CONTINUOUS
 62
     3
 10
10.19999999999993
 20
237.4540419349951
 30
0.0
 40
0.3
 50
228.1896851042157
 51
239.9999999999994
  0
ARC
  5
1AA8
  8
0
  6
CONTINUOUS
 62
     3
 10
9.8999999999999773
 20
236.9344266927244
 30
0.0
 40
0.3
 50
299.99999999999238
 51
59.99999999999946
  0
ARC
  5
1AA9
  8
0
  6
CONTINUOUS
 62
     3
 10
10.19999999999993
 20
236.4148114504537
 30
0.0
 40
0.3
 50
120.0000000000005
 51
131.81031489578419
  0
LINE
  5
1AAA
  8
0
  6
CONTINUOUS
 62
     3
 10
9.9999999999998863
 20
241.43442669272409
 30
0.0
 11
9.9999999999998863
 21
237.23043513724511
 31
0.0
  0
LINE
  5
1AAB
  8
0
  6
CONTINUOUS
 62
     3
 10
10.5999999999999
 20
232.0344266927244
 30
0.0
 11
10.199999999999809
 21
232.43442669272449
 31
0.0
  0
LINE
  5
1AAC
  8
0
  6
CONTINUOUS
 62
     3
 10
10.50000000000011
 20
231.9344266927244
 30
0.0
 11
10.0
 21
232.4344266927244
 31
0.0
  0
LINE
  5
1AAD
  8
0
  6
CONTINUOUS
 62
     3
 10
10.199999999999809
 20
241.13442669272499
 30
0.0
 11
10.199999999999809
 21
232.43442669272449
 31
0.0
  0
LINE
  5
1AAE
  8
0
  6
CONTINUOUS
 62
     3
 10
9.9999999999998863
 20
236.63841824820369
 30
0.0
 11
10.0
 21
232.4344266927244
 31
0.0
  0
LINE
  5
1AAF
  8
0
  6
HIDDEN
 62
     2
 10
32.249999999999979
 20
231.93442669272449
 30
0.0
 11
32.249999999999979
 21
227.93442669272449
 31
0.0
  0
LINE
  5
1AB0
  8
0
  6
HIDDEN
 62
     2
 10
27.749999999999979
 20
231.93442669272449
 30
0.0
 11
27.749999999999979
 21
227.93442669272449
 31
0.0
  0
LINE
  5
1AB1
  8
0
  6
CONTINUOUS
 62
     3
 10
18.0
 20
228.4344266927246
 30
0.0
 11
17.999999999999879
 21
232.23442669272441
 31
0.0
  0
LINE
  5
1AB2
  8
0
  6
CENTER
 62
   253
 10
30.000000000000099
 20
242.9344266927244
 30
0.0
 11
30.000000000000099
 21
226.93442669272449
 31
0.0
  0
ARC
  5
1AB3
  8
0
  6
CONTINUOUS
 62
     3
 10
21.519615242270788
 20
228.1344266927245
 30
0.0
 40
0.3
 50
210.0000000000004
 51
221.81031489577271
  0
ARC
  5
1AB4
  8
0
  6
CONTINUOUS
 62
     3
 10
20.480384757729439
 20
228.1344266927245
 30
0.0
 40
0.3
 50
318.1896851042261
 51
329.99999999999937
  0
LINE
  5
1AB5
  8
0
  6
CONTINUOUS
 62
     3
 10
18.50000000000022
 20
227.9344266927244
 30
0.0
 11
18.0
 21
228.4344266927246
 31
0.0
  0
LINE
  5
1AB6
  8
0
  6
CONTINUOUS
 62
     3
 10
18.50000000000011
 20
227.9344266927244
 30
0.0
 11
20.70399155547954
 21
227.9344266927244
 31
0.0
  0
ARC
  5
1AB7
  8
0
  6
CONTINUOUS
 62
     3
 10
21.00000000000011
 20
227.83442669272449
 30
0.0
 40
0.3
 50
29.99999999999832
 51
149.9999999999994
  0
LINE
  5
1AB8
  8
0
  6
CONTINUOUS
 62
     3
 10
22.499999999999979
 20
241.5344266927244
 30
0.0
 11
22.100000000000229
 21
241.9344266927244
 31
0.0
  0
LINE
  5
1AB9
  8
1
  6
HIDDEN
 62
     4
 10
14.77050000000008
 20
237.4344266927244
 30
0.0
 11
16.00000000000011
 21
236.7245745367544
 31
0.0
  0
LINE
  5
1ABA
  8
1
  6
HIDDEN
 62
     4
 10
17.22950000000014
 20
237.4344266927244
 30
0.0
 11
16.00000000000011
 21
236.7245745367544
 31
0.0
  0
LINE
  5
1ABB
  8
1
  6
HIDDEN
 62
     4
 10
17.22950000000014
 20
237.4344266927244
 30
0.0
 11
14.77050000000008
 21
237.4344266927244
 31
0.0
  0
LINE
  5
1ABC
  8
1
  6
HIDDEN
 62
     4
 10
17.50000000000011
 20
238.4344266927244
 30
0.0
 11
14.50000000000011
 21
238.4344266927244
 31
0.0
  0
LINE
  5
1ABD
  8
1
  6
HIDDEN
 62
     4
 10
14.50000000000011
 20
238.4344266927244
 30
0.0
 11
14.77050000000008
 21
237.9659069492744
 31
0.0
  0
LINE
  5
1ABE
  8
1
  6
HIDDEN
 62
     4
 10
17.50000000000011
 20
238.4344266927244
 30
0.0
 11
17.22950000000014
 21
237.9659069492744
 31
0.0
  0
CIRCLE
  5
1ABF
  8
2
  6
CONTINUOUS
 62
     3
 10
17.5
 20
238.9344266927254
 30
0.0
 40
1.6000000000000001
  0
LINE
  5
1AC0
  8
4
  6
CONTINUOUS
 62
     3
 10
16.539999999759971
 20
238.6726085095554
 30
0.0
 11
16.539999999760081
 21
239.19624487318549
 31
0.0
  0
LINE
  5
1AC1
  8
4
  6
CONTINUOUS
 62
     3
 10
17.02872727249007
 20
238.6726085095554
 30
0.0
 11
16.539999999759971
 21
238.6726085095554
 31
0.0
  0
LINE
  5
1AC2
  8
4
  6
CONTINUOUS
 62
     3
 10
16.539999999760081
 20
239.19624487318549
 30
0.0
 11
17.02872727249018
 21
239.19624487318541
 31
0.0
  0
LINE
  5
1AC3
  8
4
  6
CONTINUOUS
 62
     3
 10
18.45999999976015
 20
239.19624487318529
 30
0.0
 11
18.45999999976004
 21
238.6726085095552
 31
0.0
  0
LINE
  5
1AC4
  8
4
  6
CONTINUOUS
 62
     3
 10
18.45999999976004
 20
238.6726085095552
 30
0.0
 11
17.971272727029941
 21
238.67260850955529
 31
0.0
  0
LINE
  5
1AC5
  8
4
  6
CONTINUOUS
 62
     3
 10
17.971272727030051
 20
239.19624487318529
 30
0.0
 11
18.45999999976015
 21
239.19624487318529
 31
0.0
  0
LINE
  5
1AC6
  8
4
  6
CONTINUOUS
 62
     3
 10
17.76181818157999
 20
237.9744266913653
 30
0.0
 11
17.23818181794001
 21
237.9744266913653
 31
0.0
  0
LINE
  5
1AC7
  8
4
  6
CONTINUOUS
 62
     3
 10
17.23818181794001
 20
237.9744266913653
 30
0.0
 11
17.23818181794001
 21
238.4631539640954
 31
0.0
  0
ARC
  5
1AC8
  8
4
  6
CONTINUOUS
 62
     3
 10
17.971272727029941
 20
238.46315396409531
 30
0.0
 40
0.2094545454545
 50
89.999999999993491
 51
179.99999999999511
  0
LINE
  5
1AC9
  8
4
  6
CONTINUOUS
 62
     3
 10
17.76181818157999
 20
238.46315396409531
 30
0.0
 11
17.76181818157999
 21
237.9744266913653
 31
0.0
  0
ARC
  5
1ACA
  8
4
  6
CONTINUOUS
 62
     3
 10
17.02872727249007
 20
238.4631539640954
 30
0.0
 40
0.2094545454545
 50
359.99999999999511
 51
89.999999999993491
  0
LINE
  5
1ACB
  8
4
  6
CONTINUOUS
 62
     3
 10
17.238181817940131
 20
239.8944266913654
 30
0.0
 11
17.761818181580111
 21
239.89442669136531
 31
0.0
  0
LINE
  5
1ACC
  8
4
  6
CONTINUOUS
 62
     3
 10
17.761818181580111
 20
239.89442669136531
 30
0.0
 11
17.761818181580111
 21
239.40569941864541
 31
0.0
  0
ARC
  5
1ACD
  8
4
  6
CONTINUOUS
 62
     3
 10
17.971272727030051
 20
239.40569941864541
 30
0.0
 40
0.2094545454545
 50
179.99999999999511
 51
269.99999999999341
  0
ARC
  5
1ACE
  8
4
  6
CONTINUOUS
 62
     3
 10
17.02872727249018
 20
239.40569941864541
 30
0.0
 40
0.2094545454545
 50
269.99999999999341
 51
359.99999999999511
  0
LINE
  5
1ACF
  8
4
  6
CONTINUOUS
 62
     3
 10
17.238181817940131
 20
239.40569941864541
 30
0.0
 11
17.238181817940131
 21
239.8944266913654
 31
0.0
  0
ARC
  5
1AD0
  8
0
  6
CONTINUOUS
 62
     3
 10
18.199999999999811
 20
236.2344266927247
 30
0.0
 40
1.0
 50
90.0
 51
180.0000000000455
  0
ARC
  5
1AD1
  8
0
  6
CONTINUOUS
 62
     3
 10
18.199999999999811
 20
236.2344266927247
 30
0.0
 40
1.1763269807086081
 50
90.0
 51
180.0
  0
ARC
  5
1AD2
  8
0
  6
CONTINUOUS
 62
     3
 10
18.199999999999811
 20
236.2344266927247
 30
0.0
 40
0.2
 50
90.0
 51
180.0
  0
LINE
  5
1AD3
  8
0
  6
CONTINUOUS
 62
     3
 10
19.099999999999561
 20
234.61442669272489
 30
0.0
 11
18.99084003963571
 21
234.61442669272489
 31
0.0
  0
ARC
  5
1AD4
  8
0
  6
CONTINUOUS
 62
     3
 10
17.799999999999951
 20
234.23442669272481
 30
0.0
 40
1.25
 50
17.698011632632369
 51
73.986605576189874
  0
ARC
  5
1AD5
  8
0
  6
CONTINUOUS
 62
     3
 10
18.200000000000159
 20
235.62816267921471
 30
0.0
 40
0.2
 50
180.0000000000195
 51
253.98660557618311
  0
LINE
  5
1AD6
  8
0
  6
CONTINUOUS
 62
     3
 10
17.999999999999769
 20
236.2344266927247
 30
0.0
 11
18.00000000000022
 21
235.6281626792146
 31
0.0
  0
LINE
  5
1AD7
  8
1
  6
HIDDEN
 62
     4
 10
14.50000000000011
 20
241.9344266927244
 30
0.0
 11
14.50000000000011
 21
238.4344266927244
 31
0.0
  0
LINE
  5
1AD8
  8
1
  6
HIDDEN
 62
     4
 10
14.77050000000008
 20
241.9344266927244
 30
0.0
 11
14.77050000000008
 21
237.4344266927244
 31
0.0
  0
LINE
  5
1AD9
  8
1
  6
HIDDEN
 62
     4
 10
17.22950000000014
 20
241.9344266927244
 30
0.0
 11
17.22950000000014
 21
237.4344266927244
 31
0.0
  0
LINE
  5
1ADA
  8
1
  6
HIDDEN
 62
     4
 10
17.50000000000011
 20
241.9344266927244
 30
0.0
 11
17.50000000000011
 21
238.4344266927244
 31
0.0
  0
LINE
  5
1ADB
  8
1
  6
CENTER
 62
   253
 10
16.00000000000011
 20
235.7245745367544
 30
0.0
 11
16.00000000000011
 21
242.9344266927244
 31
0.0
  0
LINE
  5
1ADC
  8
0
  6
CONTINUOUS
 62
     3
 10
19.099999999999682
 20
233.85442669272439
 30
0.0
 11
18.99084003963571
 21
233.85442669272439
 31
0.0
  0
ARC
  5
1ADD
  8
0
  6
CONTINUOUS
 62
     3
 10
17.799999999999951
 20
234.23442669272481
 30
0.0
 40
1.25
 50
286.01339442382351
 51
342.30198836735531
  0
ARC
  5
1ADE
  8
0
  6
CONTINUOUS
 62
     3
 10
18.2000000000005
 20
232.84069070623491
 30
0.0
 40
0.2
 50
106.01339442381681
 51
179.99999999998039
  0
ARC
  5
1ADF
  8
0
  6
CONTINUOUS
 62
     3
 10
17.800000000000061
 20
232.23442669272441
 30
0.0
 40
0.2
 50
270.0
 51
0.0
  0
LINE
  5
1AE0
  8
0
  6
CONTINUOUS
 62
     3
 10
18.0
 20
232.23442669272441
 30
0.0
 11
18.0
 21
232.84069070623491
 31
0.0
  0
ARC
  5
1AE1
  8
0
  6
CONTINUOUS
 62
     3
 10
17.099999999999788
 20
232.4344266927244
 30
0.0
 40
0.5
 50
270.0
 51
306.86989764582108
  0
ARC
  5
1AE2
  8
0
  6
CONTINUOUS
 62
     3
 10
19.099999999999682
 20
234.23442669272461
 30
0.0
 40
0.3800000000002797
 50
270.0
 51
90.0
  0
LINE
  5
1AE3
  8
0
  6
CONTINUOUS
 62
     3
 10
17.023673019294161
 20
236.2344266927247
 30
0.0
 11
17.023673019294161
 21
232.03442669272431
 31
0.0
  0
LINE
  5
1AE4
  8
0
  6
CONTINUOUS
 62
     3
 10
17.199999999999591
 20
236.23442669272401
 30
0.0
 11
17.20000000000277
 21
232.03442669272431
 31
0.0
  0
LINE
  5
1AE5
  8
0
  6
CONTINUOUS
 62
     3
 10
37.499999999999979
 20
241.5344266927244
 30
0.0
 11
37.899999999999963
 21
241.9344266927244
 31
0.0
  0
CIRCLE
  5
1AE6
  8
0
  6
CONTINUOUS
 62
     3
 10
29.999999999999979
 20
238.93442669272491
 30
0.0
 40
0.6000000000000229
  0
LINE
  5
1AE7
  8
0
  6
HIDDEN
 62
     2
 10
25.999999999999979
 20
231.93442669272449
 30
0.0
 11
33.999999999999979
 21
231.93442669272449
 31
0.0
  0
LINE
  5
1AE8
  8
0
  6
HIDDEN
 62
     2
 10
25.999999999999979
 20
231.93442669272449
 30
0.0
 11
25.999999999999979
 21
236.43442669272491
 31
0.0
  0
LINE
  5
1AE9
  8
0
  6
HIDDEN
 62
     2
 10
33.999999999999979
 20
231.93442669272449
 30
0.0
 11
33.999999999999979
 21
236.4344266927248
 31
0.0
  0
LINE
  5
1AEA
  8
0
  6
CONTINUOUS
 62
     3
 10
55.499999999999979
 20
236.4344266927248
 30
0.0
 11
127.75
 21
236.43442669272491
 31
0.0
  0
LINE
  5
1AEB
  8
0
  6
CONTINUOUS
 62
     3
 10
54.999999999999993
 20
235.49842038222249
 30
0.0
 11
127.7499999999999
 21
235.4984203822228
 31
0.0
  0
LINE
  5
1AEC
  8
0
  6
CONTINUOUS
 62
     3
 10
54.999999999999993
 20
234.6344266927253
 30
0.0
 11
127.7499999999999
 21
234.63442669272541
 31
0.0
  0
LINE
  5
1AED
  8
0
  6
CONTINUOUS
 62
     3
 10
54.999999999999993
 20
233.8344266927248
 30
0.0
 11
127.7499999999999
 21
233.83442669272489
 31
0.0
  0
LINE
  5
1AEE
  8
0
  6
CONTINUOUS
 62
     3
 10
54.999999999999993
 20
232.9704330032275
 30
0.0
 11
127.7499999999999
 21
232.9704330032275
 31
0.0
  0
LINE
  5
1AEF
  8
0
  6
CONTINUOUS
 62
     3
 10
42.000000000000092
 20
228.43442669272449
 30
0.0
 11
41.999999999999872
 21
232.23442669272441
 31
0.0
  0
LINE
  5
1AF0
  8
0
  6
CONTINUOUS
 62
     3
 10
54.999999999999993
 20
235.9344266927248
 30
0.0
 11
54.999999999999993
 21
228.43442669272429
 31
0.0
  0
LINE
  5
1AF1
  8
0
  6
CONTINUOUS
 62
     3
 10
41.499999999999872
 20
227.9344266927242
 30
0.0
 11
42.000000000000092
 21
228.43442669272449
 31
0.0
  0
LINE
  5
1AF2
  8
0
  6
CONTINUOUS
 62
     3
 10
54.999999999999993
 20
228.43442669272429
 30
0.0
 11
55.499999999999979
 21
227.93442669272429
 31
0.0
  0
LINE
  5
1AF3
  8
0
  6
CONTINUOUS
 62
     3
 10
49.499999999999993
 20
241.9344266927244
 30
0.0
 11
49.999999999999993
 21
241.4344266927244
 31
0.0
  0
LINE
  5
1AF4
  8
0
  6
CONTINUOUS
 62
     3
 10
49.400000000000077
 20
241.53442669272511
 30
0.0
 11
49.800000000000168
 21
241.13442669272499
 31
0.0
  0
LINE
  5
1AF5
  8
1
  6
HIDDEN
 62
     4
 10
42.770500000000069
 20
237.4344266927244
 30
0.0
 11
44.000000000000099
 21
236.7245745367544
 31
0.0
  0
LINE
  5
1AF6
  8
1
  6
HIDDEN
 62
     4
 10
45.229500000000129
 20
237.4344266927244
 30
0.0
 11
44.000000000000099
 21
236.7245745367544
 31
0.0
  0
LINE
  5
1AF7
  8
1
  6
HIDDEN
 62
     4
 10
45.229500000000129
 20
237.4344266927244
 30
0.0
 11
42.770500000000069
 21
237.4344266927244
 31
0.0
  0
LINE
  5
1AF8
  8
1
  6
HIDDEN
 62
     4
 10
45.500000000000099
 20
238.4344266927244
 30
0.0
 11
42.500000000000092
 21
238.4344266927244
 31
0.0
  0
LINE
  5
1AF9
  8
1
  6
HIDDEN
 62
     4
 10
42.500000000000092
 20
238.4344266927244
 30
0.0
 11
42.770500000000069
 21
237.9659069492744
 31
0.0
  0
LINE
  5
1AFA
  8
1
  6
HIDDEN
 62
     4
 10
45.500000000000099
 20
238.4344266927244
 30
0.0
 11
45.229500000000129
 21
237.9659069492744
 31
0.0
  0
LINE
  5
1AFB
  8
4
  6
CONTINUOUS
 62
     3
 10
42.761818182060082
 20
239.4056994186443
 30
0.0
 11
42.761818182060082
 21
239.89442669136429
 31
0.0
  0
ARC
  5
1AFC
  8
4
  6
CONTINUOUS
 62
     3
 10
42.971272727510019
 20
239.4056994186443
 30
0.0
 40
0.2094545454545
 50
180.0
 51
270.0
  0
ARC
  5
1AFD
  8
4
  6
CONTINUOUS
 62
     3
 10
42.028727272970151
 20
239.4056994186443
 30
0.0
 40
0.2094545454545
 50
270.0
 51
0.0
  0
LINE
  5
1AFE
  8
4
  6
CONTINUOUS
 62
     3
 10
42.238181818420102
 20
239.89442669136429
 30
0.0
 11
42.238181818420102
 21
239.4056994186443
 31
0.0
  0
LINE
  5
1AFF
  8
4
  6
CONTINUOUS
 62
     3
 10
42.761818182060082
 20
239.89442669136429
 30
0.0
 11
42.238181818420102
 21
239.89442669136429
 31
0.0
  0
ARC
  5
1B00
  8
4
  6
CONTINUOUS
 62
     3
 10
42.971272727510019
 20
238.46315396409429
 30
0.0
 40
0.2094545454545
 50
90.0
 51
180.0
  0
LINE
  5
1B01
  8
4
  6
CONTINUOUS
 62
     3
 10
42.238181818420102
 20
238.46315396409429
 30
0.0
 11
42.238181818420102
 21
237.9744266913643
 31
0.0
  0
ARC
  5
1B02
  8
4
  6
CONTINUOUS
 62
     3
 10
42.028727272970151
 20
238.46315396409429
 30
0.0
 40
0.2094545454545
 50
0.0
 51
90.0
  0
LINE
  5
1B03
  8
4
  6
CONTINUOUS
 62
     3
 10
42.761818182060082
 20
237.9744266913643
 30
0.0
 11
42.761818182060082
 21
238.46315396409429
 31
0.0
  0
LINE
  5
1B04
  8
4
  6
CONTINUOUS
 62
     3
 10
42.238181818420102
 20
237.9744266913643
 30
0.0
 11
42.761818182060082
 21
237.9744266913643
 31
0.0
  0
LINE
  5
1B05
  8
4
  6
CONTINUOUS
 62
     3
 10
42.028727272970151
 20
239.1962448731843
 30
0.0
 11
41.540000000240049
 21
239.1962448731843
 31
0.0
  0
LINE
  5
1B06
  8
4
  6
CONTINUOUS
 62
     3
 10
41.540000000240049
 20
238.67260850955421
 30
0.0
 11
42.028727272970151
 21
238.67260850955421
 31
0.0
  0
LINE
  5
1B07
  8
4
  6
CONTINUOUS
 62
     3
 10
41.540000000240049
 20
239.1962448731843
 30
0.0
 11
41.540000000240049
 21
238.67260850955421
 31
0.0
  0
LINE
  5
1B08
  8
4
  6
CONTINUOUS
 62
     3
 10
43.460000000240122
 20
239.1962448731843
 30
0.0
 11
42.971272727510019
 21
239.1962448731843
 31
0.0
  0
LINE
  5
1B09
  8
4
  6
CONTINUOUS
 62
     3
 10
42.971272727510019
 20
238.67260850955421
 30
0.0
 11
43.460000000240122
 21
238.67260850955421
 31
0.0
  0
LINE
  5
1B0A
  8
4
  6
CONTINUOUS
 62
     3
 10
43.460000000240122
 20
238.67260850955421
 30
0.0
 11
43.460000000240122
 21
239.1962448731843
 31
0.0
  0
CIRCLE
  5
1B0B
  8
2
  6
CONTINUOUS
 62
     3
 10
42.500000000000092
 20
238.93442669272429
 30
0.0
 40
1.6000000000000001
  0
ARC
  5
1B0C
  8
0
  6
CONTINUOUS
 62
     3
 10
41.800000000000161
 20
236.2344266927247
 30
0.0
 40
1.1763269807086081
 50
0.0
 51
90.0
  0
ARC
  5
1B0D
  8
0
  6
CONTINUOUS
 62
     3
 10
41.800000000000161
 20
236.2344266927247
 30
0.0
 40
1.0
 50
359.99999999995441
 51
90.0
  0
LINE
  5
1B0E
  8
0
  6
CONTINUOUS
 62
     3
 10
42.000000000000213
 20
236.2344266927247
 30
0.0
 11
41.999999999999758
 21
235.6281626792146
 31
0.0
  0
ARC
  5
1B0F
  8
0
  6
CONTINUOUS
 62
     3
 10
41.79999999999982
 20
235.62816267921471
 30
0.0
 40
0.2
 50
286.01339442381669
 51
359.99999999998039
  0
ARC
  5
1B10
  8
0
  6
CONTINUOUS
 62
     3
 10
42.200000000000031
 20
234.23442669272481
 30
0.0
 40
1.25
 50
106.0133944238101
 51
162.30198836736761
  0
LINE
  5
1B11
  8
0
  6
CONTINUOUS
 62
     3
 10
40.900000000000411
 20
234.61442669272489
 30
0.0
 11
41.009159960364272
 21
234.61442669272489
 31
0.0
  0
ARC
  5
1B12
  8
0
  6
CONTINUOUS
 62
     3
 10
41.800000000000161
 20
236.2344266927247
 30
0.0
 40
0.2
 50
0.0
 51
90.0
  0
LINE
  5
1B13
  8
1
  6
HIDDEN
 62
     4
 10
42.500000000000092
 20
241.9344266927244
 30
0.0
 11
42.500000000000092
 21
238.4344266927244
 31
0.0
  0
LINE
  5
1B14
  8
1
  6
HIDDEN
 62
     4
 10
42.770500000000069
 20
241.9344266927244
 30
0.0
 11
42.770500000000069
 21
237.4344266927244
 31
0.0
  0
LINE
  5
1B15
  8
1
  6
HIDDEN
 62
     4
 10
45.229500000000129
 20
241.9344266927244
 30
0.0
 11
45.229500000000129
 21
237.4344266927244
 31
0.0
  0
LINE
  5
1B16
  8
1
  6
HIDDEN
 62
     4
 10
45.500000000000099
 20
241.9344266927244
 30
0.0
 11
45.500000000000099
 21
238.4344266927244
 31
0.0
  0
LINE
  5
1B17
  8
1
  6
CENTER
 62
   253
 10
44.000000000000099
 20
235.7245745367544
 30
0.0
 11
44.000000000000099
 21
242.9344266927244
 31
0.0
  0
LINE
  5
1B18
  8
0
  6
CONTINUOUS
 62
     3
 10
49.499999999999993
 20
231.9344266927244
 30
0.0
 11
49.999999999999993
 21
232.4344266927244
 31
0.0
  0
LINE
  5
1B19
  8
0
  6
CONTINUOUS
 62
     3
 10
49.400000000000077
 20
232.0344266927244
 30
0.0
 11
49.800000000000168
 21
232.43442669272449
 31
0.0
  0
ARC
  5
1B1A
  8
0
  6
CONTINUOUS
 62
     3
 10
42.900000000000297
 20
232.43442669272429
 30
0.0
 40
0.5
 50
233.13010235414609
 51
270.0
  0
ARC
  5
1B1B
  8
0
  6
CONTINUOUS
 62
     3
 10
41.799999999999493
 20
232.84069070623491
 30
0.0
 40
0.2
 50
0.0000000000130276
 51
73.98660557618318
  0
ARC
  5
1B1C
  8
0
  6
CONTINUOUS
 62
     3
 10
42.200000000000031
 20
234.23442669272481
 30
0.0
 40
1.25
 50
197.69801163264469
 51
253.9866055761764
  0
LINE
  5
1B1D
  8
0
  6
CONTINUOUS
 62
     3
 10
40.900000000000297
 20
233.85442669272439
 30
0.0
 11
41.009159960364272
 21
233.85442669272439
 31
0.0
  0
ARC
  5
1B1E
  8
0
  6
CONTINUOUS
 62
     3
 10
42.19999999999991
 20
232.23442669272441
 30
0.0
 40
0.2
 50
180.0
 51
270.0
  0
LINE
  5
1B1F
  8
0
  6
CONTINUOUS
 62
     3
 10
41.999999999999979
 20
232.23442669272441
 30
0.0
 11
41.999999999999979
 21
232.84069070623491
 31
0.0
  0
LINE
  5
1B20
  8
0
  6
CONTINUOUS
 62
     3
 10
49.400000000000077
 20
232.0344266927244
 30
0.0
 11
42.19999999999991
 21
232.03442669272431
 31
0.0
  0
LINE
  5
1B21
  8
0
  6
CONTINUOUS
 62
     3
 10
42.900000000000297
 20
231.9344266927244
 30
0.0
 11
49.499999999999993
 21
231.9344266927244
 31
0.0
  0
ARC
  5
1B22
  8
0
  6
CONTINUOUS
 62
     3
 10
40.900000000000297
 20
234.23442669272461
 30
0.0
 40
0.3800000000002797
 50
89.999999999993491
 51
269.99999999999341
  0
LINE
  5
1B23
  8
0
  6
CONTINUOUS
 62
     3
 10
42.976326980705807
 20
236.2344266927247
 30
0.0
 11
42.976326980705807
 21
232.03442669272431
 31
0.0
  0
LINE
  5
1B24
  8
0
  6
CONTINUOUS
 62
     3
 10
42.800000000000388
 20
236.23442669272401
 30
0.0
 11
42.799999999997212
 21
232.03442669272431
 31
0.0
  0
LINE
  5
1B25
  8
0
  6
CONTINUOUS
 62
     3
 10
49.800000000000168
 20
241.13442669272499
 30
0.0
 11
49.800000000000168
 21
232.43442669272449
 31
0.0
  0
LINE
  5
1B26
  8
0
  6
CONTINUOUS
 62
     3
 10
49.999999999999993
 20
241.4344266927244
 30
0.0
 11
49.999999999999993
 21
232.4344266927244
 31
0.0
  0
LINE
  5
1B27
  8
0
  6
CONTINUOUS
 62
     3
 10
54.999999999999993
 20
235.9344266927248
 30
0.0
 11
55.499999999999979
 21
236.4344266927248
 31
0.0
  0
LINE
  5
1B28
  8
0
  6
HIDDEN
 62
     2
 10
67.749999999999872
 20
231.93442669272449
 30
0.0
 11
67.749999999999872
 21
227.93442669272449
 31
0.0
  0
LINE
  5
1B29
  8
0
  6
HIDDEN
 62
     2
 10
72.249999999999872
 20
231.93442669272449
 30
0.0
 11
72.249999999999872
 21
227.93442669272449
 31
0.0
  0
LINE
  5
1B2A
  8
0
  6
CENTER
 62
   253
 10
69.999999999999986
 20
237.4344266927248
 30
0.0
 11
69.999999999999986
 21
226.93442669272449
 31
0.0
  0
LINE
  5
1B2B
  8
0
  6
HIDDEN
 62
     2
 10
73.999999999999872
 20
231.93442669272449
 30
0.0
 11
73.999999999999872
 21
236.4344266927248
 31
0.0
  0
LINE
  5
1B2C
  8
0
  6
HIDDEN
 62
     2
 10
65.999999999999872
 20
231.93442669272449
 30
0.0
 11
65.999999999999872
 21
236.43442669272491
 31
0.0
  0
LINE
  5
1B2D
  8
0
  6
HIDDEN
 62
     2
 10
65.999999999999872
 20
231.93442669272449
 30
0.0
 11
73.999999999999872
 21
231.93442669272449
 31
0.0
  0
LINE
  5
1B2E
  8
0
  6
HIDDEN
 62
     2
 10
112.2499999999998
 20
231.93442669272449
 30
0.0
 11
112.2499999999998
 21
227.93442669272449
 31
0.0
  0
LINE
  5
1B2F
  8
0
  6
HIDDEN
 62
     2
 10
107.7499999999998
 20
231.93442669272449
 30
0.0
 11
107.7499999999998
 21
227.93442669272449
 31
0.0
  0
LINE
  5
1B30
  8
0
  6
CENTER
 62
   253
 10
109.9999999999999
 20
237.4344266927248
 30
0.0
 11
109.9999999999999
 21
226.93442669272449
 31
0.0
  0
LINE
  5
1B31
  8
0
  6
HIDDEN
 62
     2
 10
105.9999999999998
 20
231.93442669272449
 30
0.0
 11
113.9999999999998
 21
231.93442669272449
 31
0.0
  0
LINE
  5
1B32
  8
0
  6
HIDDEN
 62
     2
 10
105.9999999999998
 20
231.93442669272449
 30
0.0
 11
105.9999999999998
 21
236.43442669272491
 31
0.0
  0
LINE
  5
1B33
  8
0
  6
HIDDEN
 62
     2
 10
113.9999999999998
 20
231.93442669272449
 30
0.0
 11
113.9999999999998
 21
236.4344266927248
 31
0.0
  0
LINE
  5
1B34
  8
0
  6
CONTINUOUS
 62
     3
 10
134.7500000000002
 20
241.5344266927244
 30
0.0
 11
128.75
 21
241.5344266927244
 31
0.0
  0
LINE
  5
1B35
  8
0
  6
CONTINUOUS
 62
     3
 10
134.74999999999989
 20
247.19999999999979
 30
0.0
 11
128.75
 21
247.19999999999979
 31
0.0
  0
LINE
  5
1B36
  8
0
  6
CONTINUOUS
 62
     3
 10
134.74999999999989
 20
232.0344266927238
 30
0.0
 11
127.7499999999999
 21
232.0344266927238
 31
0.0
  0
LINE
  5
1B37
  8
0
  6
CONTINUOUS
 62
     3
 10
128.5290627287699
 20
240.53442669272499
 30
0.0
 11
128.75
 21
240.53442669272499
 31
0.0
  0
LINE
  5
1B38
  8
0
  6
CONTINUOUS
 62
     3
 10
128.5290627287699
 20
237.33442669272489
 30
0.0
 11
128.75
 21
237.33442669272489
 31
0.0
  0
LINE
  5
1B39
  8
0
  6
CONTINUOUS
 62
     3
 10
127.7499999999999
 20
237.23442669272421
 30
0.0
 11
128.50232671782069
 21
237.36708219138379
 31
0.0
  0
ARC
  5
1B3A
  8
0
  6
CONTINUOUS
 62
     3
 10
130.45000000000019
 20
238.934426692725
 30
0.0
 40
2.5
 50
140.2081805004367
 51
219.79181949955401
  0
LINE
  5
1B3B
  8
0
  6
CONTINUOUS
 62
     3
 10
127.7499999999999
 20
237.23442669272401
 30
0.0
 11
127.7499999999999
 21
232.0344266927238
 31
0.0
  0
LINE
  5
1B3C
  8
0
  6
CONTINUOUS
 62
     3
 10
129.75
 20
241.5344266927244
 30
0.0
 11
129.75
 21
232.0344266927238
 31
0.0
  0
LINE
  5
1B3D
  8
0
  6
CONTINUOUS
 62
     3
 10
128.75
 20
241.5344266927244
 30
0.0
 11
128.75
 21
232.0344266927238
 31
0.0
  0
LINE
  5
1B3E
  8
1
  6
HIDDEN
 62
     4
 10
144.0
 20
238.4344266927244
 30
0.0
 11
143.72950000000009
 21
237.9659069492744
 31
0.0
  0
LINE
  5
1B3F
  8
1
  6
HIDDEN
 62
     4
 10
143.72950000000009
 20
237.4344266927244
 30
0.0
 11
142.5
 21
236.7245745367544
 31
0.0
  0
LINE
  5
1B40
  8
1
  6
HIDDEN
 62
     4
 10
144.0
 20
241.9344266927244
 30
0.0
 11
144.0
 21
238.4344266927244
 31
0.0
  0
LINE
  5
1B41
  8
1
  6
HIDDEN
 62
     4
 10
143.72950000000009
 20
241.9344266927244
 30
0.0
 11
143.72950000000009
 21
237.4344266927244
 31
0.0
  0
LINE
  5
1B42
  8
1
  6
CENTER
 62
   253
 10
142.5
 20
235.7245745367544
 30
0.0
 11
142.5
 21
242.9344266927244
 31
0.0
  0
LINE
  5
1B43
  8
0
  6
CONTINUOUS
 62
     3
 10
134.74999999999989
 20
247.19999999999999
 30
0.0
 11
134.95000000000019
 21
247.0
 31
0.0
  0
LINE
  5
1B44
  8
0
  6
CONTINUOUS
 62
     3
 10
135.25
 20
241.9344266927244
 30
0.0
 11
134.74999999999989
 21
241.4344266927244
 31
0.0
  0
LINE
  5
1B45
  8
1
  6
HIDDEN
 62
     4
 10
141.0
 20
238.4344266927244
 30
0.0
 11
141.2705
 21
237.9659069492744
 31
0.0
  0
LINE
  5
1B46
  8
1
  6
HIDDEN
 62
     4
 10
141.2705
 20
241.9344266927244
 30
0.0
 11
141.2705
 21
237.4344266927244
 31
0.0
  0
LINE
  5
1B47
  8
1
  6
HIDDEN
 62
     4
 10
141.0
 20
241.9344266927244
 30
0.0
 11
141.0
 21
238.4344266927244
 31
0.0
  0
LINE
  5
1B48
  8
1
  6
HIDDEN
 62
     4
 10
144.0
 20
238.4344266927244
 30
0.0
 11
141.0
 21
238.4344266927244
 31
0.0
  0
LINE
  5
1B49
  8
1
  6
HIDDEN
 62
     4
 10
143.72950000000009
 20
237.4344266927244
 30
0.0
 11
141.2705
 21
237.4344266927244
 31
0.0
  0
LINE
  5
1B4A
  8
1
  6
HIDDEN
 62
     4
 10
141.2705
 20
237.4344266927244
 30
0.0
 11
142.5
 21
236.7245745367544
 31
0.0
  0
LINE
  5
1B4B
  8
0
  6
CONTINUOUS
 62
     3
 10
134.94999999999999
 20
231.9344266927244
 30
0.0
 11
134.74999999999989
 21
232.13442669272439
 31
0.0
  0
LINE
  5
1B4C
  8
0
  6
HIDDEN
 62
     2
 10
145.9999999999998
 20
231.93442669272449
 30
0.0
 11
145.9999999999998
 21
236.43442669272491
 31
0.0
  0
LINE
  5
1B4D
  8
0
  6
CONTINUOUS
 62
     3
 10
134.74999999999989
 20
232.0344266927238
 30
0.0
 11
134.74999999999989
 21
241.5344266927244
 31
0.0
  0
LINE
  5
1B4E
  8
0
  6
CONTINUOUS
 62
     3
 10
172.25
 20
234.6344266927255
 30
0.0
 11
205.0
 21
234.63442669272561
 31
0.0
  0
LINE
  5
1B4F
  8
0
  6
CONTINUOUS
 62
     3
 10
172.25
 20
235.49842038222289
 30
0.0
 11
205.0
 21
235.498420382223
 31
0.0
  0
LINE
  5
1B50
  8
0
  6
CONTINUOUS
 62
     3
 10
172.25
 20
236.43442669272491
 30
0.0
 11
204.49999999999989
 21
236.4344266927248
 31
0.0
  0
LINE
  5
1B51
  8
0
  6
CONTINUOUS
 62
     3
 10
172.25
 20
232.9704330032275
 30
0.0
 11
205.0
 21
232.9704330032275
 31
0.0
  0
LINE
  5
1B52
  8
0
  6
CONTINUOUS
 62
     3
 10
172.25
 20
233.834426692725
 30
0.0
 11
205.0
 21
233.834426692725
 31
0.0
  0
LINE
  5
1B53
  8
0
  6
HIDDEN
 62
     2
 10
152.2499999999998
 20
231.93442669272449
 30
0.0
 11
152.2499999999998
 21
227.93442669272449
 31
0.0
  0
LINE
  5
1B54
  8
0
  6
HIDDEN
 62
     2
 10
147.7499999999998
 20
231.93442669272449
 30
0.0
 11
147.7499999999998
 21
227.93442669272449
 31
0.0
  0
LINE
  5
1B55
  8
0
  6
CENTER
 62
   253
 10
150.0
 20
237.4344266927248
 30
0.0
 11
150.0
 21
226.93442669272449
 31
0.0
  0
LINE
  5
1B56
  8
1
  6
HIDDEN
 62
     4
 10
156.0
 20
238.4344266927244
 30
0.0
 11
159.0
 21
238.4344266927244
 31
0.0
  0
LINE
  5
1B57
  8
1
  6
HIDDEN
 62
     4
 10
156.0
 20
238.4344266927244
 30
0.0
 11
156.2705
 21
237.9659069492744
 31
0.0
  0
LINE
  5
1B58
  8
1
  6
HIDDEN
 62
     4
 10
159.0
 20
238.4344266927244
 30
0.0
 11
158.72950000000009
 21
237.9659069492744
 31
0.0
  0
LINE
  5
1B59
  8
1
  6
HIDDEN
 62
     4
 10
156.2705
 20
237.4344266927244
 30
0.0
 11
158.72950000000009
 21
237.4344266927244
 31
0.0
  0
LINE
  5
1B5A
  8
1
  6
HIDDEN
 62
     4
 10
156.2705
 20
237.4344266927244
 30
0.0
 11
157.5
 21
236.7245745367544
 31
0.0
  0
LINE
  5
1B5B
  8
1
  6
HIDDEN
 62
     4
 10
158.72950000000009
 20
237.4344266927244
 30
0.0
 11
157.5
 21
236.7245745367544
 31
0.0
  0
LINE
  5
1B5C
  8
1
  6
HIDDEN
 62
     4
 10
156.0
 20
241.9344266927244
 30
0.0
 11
156.0
 21
238.4344266927244
 31
0.0
  0
LINE
  5
1B5D
  8
1
  6
HIDDEN
 62
     4
 10
156.2705
 20
241.9344266927244
 30
0.0
 11
156.2705
 21
237.4344266927244
 31
0.0
  0
LINE
  5
1B5E
  8
1
  6
HIDDEN
 62
     4
 10
158.72950000000009
 20
241.9344266927244
 30
0.0
 11
158.72950000000009
 21
237.4344266927244
 31
0.0
  0
LINE
  5
1B5F
  8
1
  6
HIDDEN
 62
     4
 10
159.0
 20
241.9344266927244
 30
0.0
 11
159.0
 21
238.4344266927244
 31
0.0
  0
LINE
  5
1B60
  8
1
  6
CENTER
 62
   253
 10
157.5
 20
235.7245745367544
 30
0.0
 11
157.5
 21
242.9344266927244
 31
0.0
  0
LINE
  5
1B61
  8
0
  6
HIDDEN
 62
     2
 10
153.9999999999998
 20
231.93442669272449
 30
0.0
 11
153.9999999999998
 21
236.4344266927248
 31
0.0
  0
LINE
  5
1B62
  8
0
  6
CONTINUOUS
 62
     3
 10
164.74999999999989
 20
241.9344266927244
 30
0.0
 11
165.25
 21
241.4344266927244
 31
0.0
  0
LINE
  5
1B63
  8
0
  6
CONTINUOUS
 62
     3
 10
165.25
 20
247.19999999999999
 30
0.0
 11
165.0500000000001
 21
247.0
 31
0.0
  0
LINE
  5
1B64
  8
0
  6
CONTINUOUS
 62
     3
 10
165.25
 20
247.19999999999979
 30
0.0
 11
171.25
 21
247.19999999999979
 31
0.0
  0
LINE
  5
1B65
  8
0
  6
CONTINUOUS
 62
     3
 10
165.25
 20
241.5344266927244
 30
0.0
 11
171.25
 21
241.5344266927244
 31
0.0
  0
LINE
  5
1B66
  8
0
  6
CONTINUOUS
 62
     3
 10
171.47093727123001
 20
237.33442669272489
 30
0.0
 11
171.25
 21
237.33442669272489
 31
0.0
  0
ARC
  5
1B67
  8
0
  6
CONTINUOUS
 62
     3
 10
169.5500000000001
 20
238.934426692725
 30
0.0
 40
2.5
 50
320.20818050044591
 51
39.791819499563218
  0
LINE
  5
1B68
  8
0
  6
CONTINUOUS
 62
     3
 10
171.47093727123001
 20
240.53442669272499
 30
0.0
 11
171.25
 21
240.53442669272499
 31
0.0
  0
LINE
  5
1B69
  8
0
  6
CONTINUOUS
 62
     3
 10
172.25
 20
237.23442669272421
 30
0.0
 11
171.49767328217939
 21
237.36708219138379
 31
0.0
  0
LINE
  5
1B6A
  8
0
  6
CONTINUOUS
 62
     3
 10
165.0500000000001
 20
231.9344266927244
 30
0.0
 11
165.25
 21
232.13442669272439
 31
0.0
  0
LINE
  5
1B6B
  8
0
  6
CONTINUOUS
 62
     3
 10
165.25
 20
232.0344266927238
 30
0.0
 11
172.2500000000002
 21
232.0344266927238
 31
0.0
  0
LINE
  5
1B6C
  8
0
  6
CONTINUOUS
 62
     3
 10
171.25
 20
241.5344266927244
 30
0.0
 11
171.25
 21
232.0344266927238
 31
0.0
  0
LINE
  5
1B6D
  8
0
  6
CONTINUOUS
 62
     3
 10
172.25
 20
237.23442669272401
 30
0.0
 11
172.25
 21
232.0344266927238
 31
0.0
  0
LINE
  5
1B6E
  8
0
  6
CONTINUOUS
 62
     3
 10
170.25
 20
241.5344266927244
 30
0.0
 11
170.25
 21
232.0344266927238
 31
0.0
  0
LINE
  5
1B6F
  8
0
  6
CONTINUOUS
 62
     3
 10
165.25
 20
232.0344266927238
 30
0.0
 11
165.25
 21
241.5344266927244
 31
0.0
  0
LINE
  5
1B70
  8
0
  6
HIDDEN
 62
     2
 10
192.24999999999989
 20
231.93442669272449
 30
0.0
 11
192.24999999999989
 21
227.93442669272449
 31
0.0
  0
LINE
  5
1B71
  8
0
  6
HIDDEN
 62
     2
 10
187.7499999999998
 20
231.93442669272449
 30
0.0
 11
187.7499999999998
 21
227.93442669272449
 31
0.0
  0
LINE
  5
1B72
  8
0
  6
CENTER
 62
   253
 10
190.0
 20
237.4344266927248
 30
0.0
 11
190.0
 21
226.93442669272449
 31
0.0
  0
LINE
  5
1B73
  8
0
  6
HIDDEN
 62
     2
 10
185.99999999999989
 20
231.93442669272449
 30
0.0
 11
193.9999999999998
 21
231.93442669272449
 31
0.0
  0
LINE
  5
1B74
  8
0
  6
HIDDEN
 62
     2
 10
185.99999999999989
 20
231.93442669272449
 30
0.0
 11
185.99999999999989
 21
236.43442669272491
 31
0.0
  0
LINE
  5
1B75
  8
0
  6
HIDDEN
 62
     2
 10
193.9999999999998
 20
231.93442669272449
 30
0.0
 11
193.9999999999998
 21
236.4344266927248
 31
0.0
  0
LINE
  5
1B76
  8
0
  6
CONTINUOUS
 62
     3
 10
205.0
 20
235.9344266927248
 30
0.0
 11
205.0
 21
228.43442669272429
 31
0.0
  0
LINE
  5
1B77
  8
0
  6
CONTINUOUS
 62
     3
 10
205.0
 20
228.43442669272429
 30
0.0
 11
204.49999999999989
 21
227.93442669272429
 31
0.0
  0
LINE
  5
1B78
  8
0
  6
CONTINUOUS
 62
     3
 10
205.0
 20
235.9344266927248
 30
0.0
 11
204.49999999999989
 21
236.4344266927248
 31
0.0
  0
CIRCLE
  5
1B79
  8
0
  6
HIDDEN
 62
     2
 10
150.0
 20
267.0
 30
0.0
 40
3.9999999999998859
  0
LINE
  5
1B7A
  8
0
  6
CENTER
 62
   253
 10
53.999999999999979
 20
267.0
 30
0.0
 11
206.0
 21
267.0
 31
0.0
  0
LINE
  5
1B7B
  8
0
  6
CONTINUOUS
 62
     3
 10
134.95000000000019
 20
287.0
 30
0.0
 11
165.0500000000001
 21
287.0
 31
0.0
  0
LINE
  5
1B7C
  8
0
  6
CONTINUOUS
 62
     3
 10
165.25
 20
274.89999999999958
 30
0.0
 11
134.74999999999989
 21
274.89999999999981
 31
0.0
  0
LINE
  5
1B7D
  8
0
  6
CONTINUOUS
 62
     3
 10
165.25
 20
274.5
 30
0.0
 11
134.74999999999989
 21
274.5
 31
0.0
  0
LINE
  5
1B7E
  8
0
  6
CONTINUOUS
 62
     3
 10
165.25
 20
259.5
 30
0.0
 11
134.74999999999989
 21
259.5
 31
0.0
  0
LINE
  5
1B7F
  8
0
  6
CONTINUOUS
 62
     3
 10
165.25
 20
259.10000000000019
 30
0.0
 11
134.74999999999989
 21
259.10000000000019
 31
0.0
  0
LINE
  5
1B80
  8
0
  6
CONTINUOUS
 62
     3
 10
55.499999999999979
 20
279.0
 30
0.0
 11
127.7500000000002
 21
279.0
 31
0.0
  0
LINE
  5
1B81
  8
0
  6
CONTINUOUS
 62
     3
 10
55.500000000000099
 20
255.0
 30
0.0
 11
127.7499999999999
 21
255.0
 31
0.0
  0
LINE
  5
1B82
  8
0
  6
CONTINUOUS
 62
     3
 10
55.000000000000099
 20
255.5
 30
0.0
 11
54.999999999999993
 21
278.5
 31
0.0
  0
LINE
  5
1B83
  8
0
  6
CONTINUOUS
 62
     3
 10
55.500000000000099
 20
255.0
 30
0.0
 11
55.000000000000099
 21
255.5
 31
0.0
  0
LINE
  5
1B84
  8
0
  6
CONTINUOUS
 62
     3
 10
55.499999999999979
 20
279.0
 30
0.0
 11
54.999999999999993
 21
278.5
 31
0.0
  0
LINE
  5
1B85
  8
0
  6
CENTER
 62
   253
 10
69.999999999999986
 20
262.0
 30
0.0
 11
69.999999999999986
 21
271.99999999999977
 31
0.0
  0
CIRCLE
  5
1B86
  8
0
  6
CONTINUOUS
 62
     2
 10
69.999999999999986
 20
267.0
 30
0.0
 40
3.9999999999998859
  0
CIRCLE
  5
1B87
  8
0
  6
CONTINUOUS
 62
     2
 10
69.999999999999872
 20
267.0
 30
0.0
 40
2.25
  0
LINE
  5
1B88
  8
0
  6
CENTER
 62
   253
 10
142.5
 20
278.49999999999989
 30
0.0
 11
142.5
 21
283.5
 31
0.0
  0
CIRCLE
  5
1B89
  8
0
  6
CONTINUOUS
 62
     4
 10
142.5
 20
281.0
 30
0.0
 40
1.5
  0
CIRCLE
  5
1B8A
  8
0
  6
CONTINUOUS
 62
     4
 10
142.5
 20
281.0
 30
0.0
 40
1.2293670000000001
  0
CIRCLE
  5
1B8B
  8
0
  6
CONTINUOUS
 62
     2
 10
109.9999999999999
 20
267.0
 30
0.0
 40
3.9999999999998859
  0
LINE
  5
1B8C
  8
0
  6
CENTER
 62
   253
 10
109.9999999999999
 20
262.0
 30
0.0
 11
109.9999999999999
 21
271.99999999999977
 31
0.0
  0
CIRCLE
  5
1B8D
  8
0
  6
CONTINUOUS
 62
     2
 10
109.9999999999998
 20
267.0
 30
0.0
 40
2.25
  0
LINE
  5
1B8E
  8
0
  6
CONTINUOUS
 62
     3
 10
127.7499999999999
 20
254.20000000000209
 30
0.0
 11
127.7500000000002
 21
279.7999999999974
 31
0.0
  0
LINE
  5
1B8F
  8
0
  6
CONTINUOUS
 62
     3
 10
128.5290627287699
 20
256.09999999999991
 30
0.0
 11
128.75
 21
256.09999999999991
 31
0.0
  0
LINE
  5
1B90
  8
0
  6
CONTINUOUS
 62
     3
 10
128.5290627287699
 20
252.89999999999989
 30
0.0
 11
128.75
 21
252.89999999999989
 31
0.0
  0
LINE
  5
1B91
  8
0
  6
CONTINUOUS
 62
     3
 10
127.7500000000002
 20
254.20000000000209
 30
0.0
 11
127.9731381170072
 21
254.16065472954921
 31
0.0
  0
ARC
  5
1B92
  8
0
  6
CONTINUOUS
 62
     3
 10
130.45000000000019
 20
254.49999999999989
 30
0.0
 40
2.5
 50
140.2081805004367
 51
219.79181949955401
  0
LINE
  5
1B93
  8
0
  6
CENTER
 62
   253
 10
142.5
 20
255.5
 30
0.0
 11
142.5
 21
250.49999999999989
 31
0.0
  0
CIRCLE
  5
1B94
  8
0
  6
CONTINUOUS
 62
     4
 10
142.5
 20
252.99999999999989
 30
0.0
 40
1.2293670000000001
  0
CIRCLE
  5
1B95
  8
0
  6
CONTINUOUS
 62
     4
 10
142.5
 20
252.99999999999989
 30
0.0
 40
1.5
  0
LINE
  5
1B96
  8
0
  6
CENTER
 62
   253
 10
140.0
 20
253.0
 30
0.0
 11
145.0000000000002
 21
253.0
 31
0.0
  0
LINE
  5
1B97
  8
0
  6
CONTINUOUS
 62
     3
 10
128.5290627287699
 20
281.09999999999991
 30
0.0
 11
128.75
 21
281.09999999999991
 31
0.0
  0
LINE
  5
1B98
  8
0
  6
CONTINUOUS
 62
     3
 10
127.7500000000002
 20
279.7999999999974
 30
0.0
 11
127.9731381170072
 21
279.83934527045022
 31
0.0
  0
LINE
  5
1B99
  8
0
  6
CONTINUOUS
 62
     3
 10
128.5290627287699
 20
277.89999999999992
 30
0.0
 11
128.75
 21
277.89999999999992
 31
0.0
  0
ARC
  5
1B9A
  8
0
  6
CONTINUOUS
 62
     3
 10
130.44999999999999
 20
279.49999999999989
 30
0.0
 40
2.5
 50
140.2081805004367
 51
219.79181949955401
  0
LINE
  5
1B9B
  8
0
  6
CENTER
 62
   253
 10
140.0
 20
281.0
 30
0.0
 11
145.0000000000002
 21
281.0
 31
0.0
  0
LINE
  5
1B9C
  8
0
  6
CONTINUOUS
 62
     3
 10
134.74999999999989
 20
286.79999999999978
 30
0.0
 11
128.75
 21
286.79999999999978
 31
0.0
  0
LINE
  5
1B9D
  8
0
  6
CONTINUOUS
 62
     3
 10
134.74999999999989
 20
286.7999999999999
 30
0.0
 11
134.95000000000019
 21
287.0
 31
0.0
  0
LINE
  5
1B9E
  8
0
  6
CONTINUOUS
 62
     3
 10
172.25000000000011
 20
279.0
 30
0.0
 11
204.5000000000002
 21
279.0
 31
0.0
  0
LINE
  5
1B9F
  8
0
  6
CONTINUOUS
 62
     3
 10
172.25000000000011
 20
255.0
 30
0.0
 11
204.49999999999989
 21
255.0
 31
0.0
  0
CIRCLE
  5
1BA0
  8
0
  6
CONTINUOUS
 62
     4
 10
157.5
 20
281.0
 30
0.0
 40
1.5
  0
CIRCLE
  5
1BA1
  8
0
  6
CONTINUOUS
 62
     4
 10
157.5
 20
281.0
 30
0.0
 40
1.2293670000000001
  0
LINE
  5
1BA2
  8
0
  6
CENTER
 62
   253
 10
157.5
 20
278.49999999999989
 30
0.0
 11
157.5
 21
283.5
 31
0.0
  0
LINE
  5
1BA3
  8
0
  6
CONTINUOUS
 62
     3
 10
172.25
 20
254.20000000000209
 30
0.0
 11
172.25
 21
279.7999999999974
 31
0.0
  0
LINE
  5
1BA4
  8
0
  6
CENTER
 62
   253
 10
150.0
 20
262.0
 30
0.0
 11
150.0
 21
271.99999999999977
 31
0.0
  0
LINE
  5
1BA5
  8
0
  6
CENTER
 62
   253
 10
160.0000000000002
 20
253.0
 30
0.0
 11
155.0
 21
253.0
 31
0.0
  0
CIRCLE
  5
1BA6
  8
0
  6
CONTINUOUS
 62
     4
 10
157.5
 20
252.99999999999989
 30
0.0
 40
1.5
  0
CIRCLE
  5
1BA7
  8
0
  6
CONTINUOUS
 62
     4
 10
157.5
 20
252.99999999999989
 30
0.0
 40
1.2293670000000001
  0
LINE
  5
1BA8
  8
0
  6
CENTER
 62
   253
 10
157.5
 20
255.5
 30
0.0
 11
157.5
 21
250.49999999999989
 31
0.0
  0
LINE
  5
1BA9
  8
0
  6
CONTINUOUS
 62
     3
 10
171.47093727123001
 20
256.09999999999991
 30
0.0
 11
171.25
 21
256.09999999999991
 31
0.0
  0
LINE
  5
1BAA
  8
0
  6
CONTINUOUS
 62
     3
 10
171.47093727123001
 20
252.89999999999989
 30
0.0
 11
171.25
 21
252.89999999999989
 31
0.0
  0
LINE
  5
1BAB
  8
0
  6
CONTINUOUS
 62
     3
 10
172.25
 20
254.20000000000209
 30
0.0
 11
172.0268618829927
 21
254.16065472954921
 31
0.0
  0
ARC
  5
1BAC
  8
0
  6
CONTINUOUS
 62
     3
 10
169.5500000000001
 20
254.49999999999989
 30
0.0
 40
2.5
 50
320.20818050044591
 51
39.791819499563218
  0
LINE
  5
1BAD
  8
0
  6
CENTER
 62
   253
 10
160.0000000000002
 20
281.0
 30
0.0
 11
155.0
 21
281.0
 31
0.0
  0
CIRCLE
  5
1BAE
  8
0
  6
HIDDEN
 62
     2
 10
149.9999999999998
 20
267.0
 30
0.0
 40
2.25
  0
LINE
  5
1BAF
  8
0
  6
CONTINUOUS
 62
     3
 10
171.47093727123021
 20
277.89999999999992
 30
0.0
 11
171.2500000000002
 21
277.89999999999992
 31
0.0
  0
ARC
  5
1BB0
  8
0
  6
CONTINUOUS
 62
     3
 10
169.5500000000001
 20
279.49999999999989
 30
0.0
 40
2.5
 50
320.20818050044591
 51
39.791819499563218
  0
LINE
  5
1BB1
  8
0
  6
CONTINUOUS
 62
     3
 10
171.47093727123021
 20
281.09999999999991
 30
0.0
 11
171.2500000000002
 21
281.09999999999991
 31
0.0
  0
LINE
  5
1BB2
  8
0
  6
CONTINUOUS
 62
     3
 10
172.25
 20
279.7999999999974
 30
0.0
 11
172.02686188299319
 21
279.83934527045022
 31
0.0
  0
CIRCLE
  5
1BB3
  8
0
  6
CONTINUOUS
 62
     2
 10
190.0
 20
267.0
 30
0.0
 40
3.9999999999998859
  0
LINE
  5
1BB4
  8
0
  6
CENTER
 62
   253
 10
190.0
 20
262.0
 30
0.0
 11
190.0
 21
271.99999999999977
 31
0.0
  0
CIRCLE
  5
1BB5
  8
0
  6
CONTINUOUS
 62
     2
 10
189.9999999999998
 20
267.0
 30
0.0
 40
2.25
  0
LINE
  5
1BB6
  8
0
  6
CONTINUOUS
 62
     3
 10
165.25
 20
286.7999999999999
 30
0.0
 11
165.0500000000001
 21
287.0
 31
0.0
  0
LINE
  5
1BB7
  8
0
  6
CONTINUOUS
 62
     3
 10
165.25
 20
286.79999999999978
 30
0.0
 11
171.25
 21
286.79999999999978
 31
0.0
  0
LINE
  5
1BB8
  8
0
  6
CONTINUOUS
 62
     3
 10
205.0
 20
255.5
 30
0.0
 11
205.0000000000002
 21
278.5
 31
0.0
  0
LINE
  5
1BB9
  8
0
  6
CONTINUOUS
 62
     3
 10
205.0
 20
255.5
 30
0.0
 11
204.49999999999989
 21
255.0
 31
0.0
  0
LINE
  5
1BBA
  8
0
  6
CONTINUOUS
 62
     3
 10
204.5000000000002
 20
279.0
 30
0.0
 11
205.0000000000002
 21
278.5
 31
0.0
  0
ENDSEC
  0
EOF
