  0
SECTION
  2
HEADER
  9
$ACADVER
  1
AC1009
  9
$INSBASE
 10
0.0
 20
0.0
 30
0.0
  9
$EXTMIN
 10
-0.0123585888793514
 20
-0.0090630292066862
 30
-0.0015258207003583
  9
$EXTMAX
 10
420.01327615931308
 20
297.00906441222071
 30
0.0000000349246037
  9
$LIMMIN
 10
0.0
 20
0.0
  9
$LIMMAX
 10
420.0
 20
297.0
  9
$ORTHOMODE
 70
     0
  9
$REGENMODE
 70
     1
  9
$FILLMODE
 70
     1
  9
$QTEXTMODE
 70
     0
  9
$MIRRTEXT
 70
     1
  9
$DRAGMODE
 70
     2
  9
$LTSCALE
 40
0.2
  9
$OSMODE
 70
    63
  9
$ATTMODE
 70
     1
  9
$TEXTSIZE
 40
2.7999999999999989
  9
$TRACEWID
 40
1.0
  9
$TEXTSTYLE
  7
KCADTEXTSTANDARD
  9
$CLAYER
  8
0
  9
$CELTYPE
  6
CONTINUOUS
  9
$CECOLOR
 62
     2
  9
$DIMSCALE
 40
1.0
  9
$DIMASZ
 40
3.0
  9
$DIMEXO
 40
1.0
  9
$DIMDLI
 40
8.0
  9
$DIMRND
 40
0.0
  9
$DIMDLE
 40
0.0
  9
$DIMEXE
 40
1.0
  9
$DIMTP
 40
0.0
  9
$DIMTM
 40
0.0
  9
$DIMTXT
 40
2.7999999999999989
  9
$DIMCEN
 40
2.5
  9
$DIMTSZ
 40
0.0
  9
$DIMTOL
 70
     0
  9
$DIMLIM
 70
     0
  9
$DIMTIH
 70
     0
  9
$DIMTOH
 70
     0
  9
$DIMSE1
 70
     0
  9
$DIMSE2
 70
     0
  9
$DIMTAD
 70
     1
  9
$DIMZIN
 70
     8
  9
$DIMBLK
  1

  9
$DIMASO
 70
     1
  9
$DIMSHO
 70
     1
  9
$DIMPOST
  1

  9
$DIMAPOST
  1

  9
$DIMALT
 70
     0
  9
$DIMALTD
 70
     3
  9
$DIMALTF
 40
0.03937
  9
$DIMLFAC
 40
1.0
  9
$DIMTOFL
 70
     1
  9
$DIMTVP
 40
0.0
  9
$DIMTIX
 70
     0
  9
$DIMSOXD
 70
     0
  9
$DIMSAH
 70
     1
  9
$DIMBLK1
  1
OPEN30
  9
$DIMBLK2
  1
OPEN30
  9
$DIMSTYLE
  2
等倍
  9
$DIMCLRD
 70
   253
  9
$DIMCLRE
 70
   253
  9
$DIMCLRT
 70
   253
  9
$DIMTFAC
 40
0.7
  9
$DIMGAP
 40
0.8
  9
$LUNITS
 70
     2
  9
$LUPREC
 70
     4
  9
$SKETCHINC
 40
1.0
  9
$FILLETRAD
 40
5.0
  9
$AUNITS
 70
     0
  9
$AUPREC
 70
     0
  9
$MENU
  1
.
  9
$ELEVATION
 40
0.0
  9
$PELEVATION
 40
0.0
  9
$THICKNESS
 40
0.0
  9
$LIMCHECK
 70
     0
  9
$BLIPMODE
 70
     0
  9
$CHAMFERA
 40
5.0
  9
$CHAMFERB
 40
5.0
  9
$SKPOLY
 70
     0
  9
$TDCREATE
 40
2454702.2619938999
  9
$TDUPDATE
 40
2456423.6359846988
  9
$TDINDWG
 40
0.0513646065
  9
$TDUSRTIMER
 40
0.0513646065
  9
$USRTIMER
 70
     1
  9
$ANGBASE
 50
0.0
  9
$ANGDIR
 70
     0
  9
$PDMODE
 70
    33
  9
$PDSIZE
 40
-1.0
  9
$PLINEWID
 40
0.0
  9
$COORDS
 70
     0
  9
$SPLFRAME
 70
     0
  9
$SPLINETYPE
 70
     6
  9
$SPLINESEGS
 70
     8
  9
$ATTDIA
 70
     0
  9
$ATTREQ
 70
     1
  9
$HANDLING
 70
 22529
  9
$HANDSEED
  5
F72
  9
$SURFTAB1
 70
     6
  9
$SURFTAB2
 70
     6
  9
$SURFTYPE
 70
     6
  9
$SURFU
 70
     6
  9
$SURFV
 70
     6
  9
$UCSNAME
  2

  9
$UCSORG
 10
0.0
 20
0.0
 30
0.0
  9
$UCSXDIR
 10
1.0
 20
0.0
 30
0.0
  9
$UCSYDIR
 10
0.0
 20
1.0
 30
0.0
  9
$PUCSNAME
  2

  9
$PUCSORG
 10
0.0
 20
0.0
 30
0.0
  9
$PUCSXDIR
 10
1.0
 20
0.0
 30
0.0
  9
$PUCSYDIR
 10
0.0
 20
1.0
 30
0.0
  9
$USERI1
 70
     0
  9
$USERI2
 70
     0
  9
$USERI3
 70
     0
  9
$USERI4
 70
   257
  9
$USERI5
 70
     0
  9
$USERR1
 40
0.0
  9
$USERR2
 40
0.0
  9
$USERR3
 40
0.0
  9
$USERR4
 40
0.0
  9
$USERR5
 40
0.0
  9
$WORLDVIEW
 70
     1
  9
$SHADEDGE
 70
     3
  9
$SHADEDIF
 70
    70
  9
$TILEMODE
 70
     1
  9
$MAXACTVP
 70
    48
  9
$PLIMCHECK
 70
     0
  9
$PEXTMIN
 10
0.0
 20
0.0
 30
0.0
  9
$PEXTMAX
 10
0.0
 20
0.0
 30
0.0
  9
$PLIMMIN
 10
0.0
 20
0.0
  9
$PLIMMAX
 10
12.0
 20
9.0
  9
$UNITMODE
 70
     0
  9
$VISRETAIN
 70
     1
  9
$PLINEGEN
 70
     0
  9
$PSLTSCALE
 70
     1
  0
ENDSEC
  0
SECTION
  2
TABLES
  0
TABLE
  2
VPORT
 70
     6
  0
VPORT
  2
*ACTIVE
 70
     0
 10
0.0
 20
0.0
 11
1.0
 21
1.0
 12
210.00045878521689
 22
148.50000069150701
 13
0.0
 23
0.0
 14
10.0
 24
10.0
 15
10.0
 25
10.0
 16
0.0
 26
0.0
 36
1.0
 17
0.0
 27
0.0
 37
0.0
 40
300.39333343507991
 41
2.387096774193548
 42
50.0
 43
0.0
 44
0.0
 50
0.0
 51
0.0
 71
     0
 72
 20000
 73
     1
 74
     1
 75
     0
 76
     0
 77
     0
 78
     0
  0
ENDTAB
  0
TABLE
  2
LTYPE
 70
     6
  0
LTYPE
  2
CONTINUOUS
 70
     0
  3
Solid line
 72
    65
 73
     0
 40
0.0
  0
LTYPE
  2
CENTER
 70
     0
  3
Center ____ _ ____ _ ____ _ ____ _ ____ _ ____
 72
    65
 73
     4
 40
50.799999999999997
 49
31.75
 49
-6.3499999999999988
 49
6.3499999999999988
 49
-6.3499999999999988
  0
LTYPE
  2
DASHED
 70
     0
  3
Dashed __ __ __ __ __ __ __ __ __ __ __ __ __ _
 72
    65
 73
     2
 40
19.050000000000001
 49
12.699999999999999
 49
-6.3499999999999988
  0
LTYPE
  2
HIDDEN
 70
     0
  3
Hidden __ __ __ __ __ __ __ __ __ __ __ __ __ _
 72
    65
 73
     2
 40
9.5250000000000004
 49
6.3499999999999988
 49
-3.1749999999999989
  0
LTYPE
  2
PHANTOM
 70
     0
  3
Phantom ______  __  __  ______  __  __  ______
 72
    65
 73
     6
 40
63.5
 49
31.75
 49
-6.3499999999999988
 49
6.3499999999999988
 49
-6.3499999999999988
 49
6.3499999999999988
 49
-6.3499999999999988
  0
LTYPE
  2
RUPTURE
 70
     0
  3
Rupture line
 72
    65
 73
     4
 40
45.719999999999999
 49
25.399999999999999
 49
-5.0800000000000001
 49
-10.16
 49
-5.0800000000000001
  0
ENDTAB
  0
TABLE
  2
LAYER
 70
    15
  0
LAYER
  2
0
 70
     0
 62
     7
  6
CONTINUOUS
  0
LAYER
  2
KCAD_DIMS
 70
     0
 62
   253
  6
CONTINUOUS
  0
LAYER
  2
DEFPOINTS
 70
     0
 62
     7
  6
CONTINUOUS
  0
LAYER
  2
KCAD_ASST
 70
     0
 62
   253
  6
CONTINUOUS
  0
LAYER
  2
KCAD_RASTER
 70
     0
 62
     7
  6
CONTINUOUS
  0
LAYER
  2
SYBCENTER
 70
     0
 62
   253
  6
CENTER
  0
LAYER
  2
SYBHIDE
 70
     0
 62
     7
  6
HIDDEN
  0
LAYER
  2
SYBOUTLINE
 70
     0
 62
     7
  6
CONTINUOUS
  0
LAYER
  2
SYBTHREAD
 70
     0
 62
   253
  6
CONTINUOUS
  0
LAYER
  2
SYBTHRHID
 70
     0
 62
   253
  6
HIDDEN
  0
LAYER
  2
KCAD_UIR_TMP_LAYER_
 70
     0
 62
     7
  6
CONTINUOUS
  0
LAYER
  2
KCAD_ZUWAKU
 70
     4
 62
     1
  6
CONTINUOUS
  0
LAYER
  2
KCAD_CPM_MAX_LAYER
 70
     3
 62
     7
  6
CONTINUOUS
  0
LAYER
  2
4
 70
     0
 62
     7
  6
CONTINUOUS
  0
LAYER
  2
2
 70
     0
 62
     7
  6
CONTINUOUS
  0
ENDTAB
  0
TABLE
  2
STYLE
 70
     5
  0
STYLE
  2
STANDARD
 70
     0
 40
0.0
 41
1.0
 50
0.0
 71
     0
 42
3.2000000000000002
  3
txt.shx
  4
bigfont.shx
  0
STYLE
  2

 70
     1
 40
0.0
 41
1.0
 50
0.0
 71
     0
 42
3.2000000000000002
  3
ltypeshp.shx
  4

  0
STYLE
  2
KCADDIMSTANDARD
 70
     0
 40
0.0
 41
0.8
 50
15.0
 71
     0
 42
3.2000000000000002
  3
monotxt.shx
  4
bigfont.shx
  0
STYLE
  2
KCADTEXTSTANDARD
 70
     0
 40
0.0
 41
0.8
 50
0.0
 71
     0
 42
2.7999999999999989
  3
monotxt.shx
  4
bigfont.shx
  0
STYLE
  2
KCADTEXT2
 70
     0
 40
0.0
 41
0.8
 50
0.0
 71
     0
 42
3.2000000000000002
  3
monotxt.shx
  4
extfont.shx
  0
ENDTAB
  0
TABLE
  2
VIEW
 70
     0
  0
ENDTAB
  0
TABLE
  2
UCS
 70
     0
  0
ENDTAB
  0
TABLE
  2
APPID
 70
     2
  0
APPID
  2
ACAD
 70
     0
  0
APPID
  2
SIGMA
 70
     0
  0
ENDTAB
  0
TABLE
  2
DIMSTYLE
 70
     2
  0
DIMSTYLE
  2
STANDARD
 70
     0
  3

  4

  5

  6

  7

 40
1.0
 41
0.18
 42
0.0625
 43
0.38
 44
0.18
 45
0.0
 46
0.0
 47
0.0
 48
0.0
140
0.18
141
0.09
142
0.0
143
25.399999999999999
144
1.0
145
0.0
146
1.0
147
0.09
 71
     0
 72
     0
 73
     1
 74
     1
 75
     0
 76
     0
 77
     0
 78
     0
170
     0
171
     2
172
     0
173
     0
174
     0
175
     0
176
     0
177
     0
178
     0
  0
DIMSTYLE
  2
等倍
 70
     0
  3

  4

  5

  6
OPEN30
  7
OPEN30
 40
1.0
 41
3.0
 42
1.0
 43
8.0
 44
1.0
 45
0.0
 46
0.0
 47
0.0
 48
0.0
140
2.7999999999999989
141
2.5
142
0.0
143
0.03937
144
1.0
145
0.0
146
0.7
147
0.8
 71
     0
 72
     0
 73
     0
 74
     0
 75
     0
 76
     0
 77
     1
 78
     8
170
     0
171
     3
172
     1
173
     1
174
     0
175
     0
176
   253
177
   253
178
   253
  0
ENDTAB
  0
ENDSEC
  0
SECTION
  2
BLOCKS
  0
BLOCK
  8
0
  2
$MODEL_SPACE
 70
     0
 10
0.0
 20
0.0
 30
0.0
  3
$MODEL_SPACE
  1

  0
ENDBLK
  5
1A
  8
0
  0
BLOCK
 67
     1
  8
0
 62
    54
  2
$PAPER_SPACE
 70
     0
 10
0.0
 20
0.0
 30
0.0
  3
$PAPER_SPACE
  1

  0
ENDBLK
  5
22E
 67
     1
  8
0
 62
    54
  0
BLOCK
  8
KCAD_DIMS
  2
KCAD_OPEN
 70
     0
 10
0.0
 20
0.0
 30
0.0
  3
KCAD_OPEN
  1

  0
LINE
  5
22
  8
0
  6
CONTINUOUS
 62
     0
 10
0.0
 20
0.0
 30
0.0
 11
-1.0
 21
0.0
 31
0.0
  0
LINE
  5
23
  8
0
  6
CONTINUOUS
 62
     0
 10
0.0
 20
0.0
 30
0.0
 11
-1.0
 21
0.158384
 31
0.0
  0
LINE
  5
24
  8
0
  6
CONTINUOUS
 62
     0
 10
0.0
 20
0.0
 30
0.0
 11
-1.0
 21
-0.158384
 31
0.0
  0
ENDBLK
  5
26
  8
KCAD_DIMS
  0
BLOCK
  8
KCAD_DIMS
  2
KCAD_DOTSMALL
 70
     0
 10
0.0
 20
0.0
 30
0.0
  3
KCAD_DOTSMALL
  1

  0
POLYLINE
  5
3D
  8
KCAD_DIMS
 62
     0
 66
     1
 10
0.0
 20
0.0
 30
0.0
 70
     1
 40
0.5
 41
0.5
  0
VERTEX
  5
F64
  8
KCAD_DIMS
 62
     0
 10
0.06252
 20
0.0
 30
0.0
 42
1.0
  0
VERTEX
  5
F65
  8
KCAD_DIMS
 62
     0
 10
-0.06262
 20
0.0
 30
0.0
 42
1.0
  0
SEQEND
  5
F66
  8
KCAD_DIMS
 62
     0
  0
LINE
  5
41
  8
0
  6
CONTINUOUS
 62
     0
 10
0.0
 20
0.0
 30
0.0
 11
-1.0
 21
0.0
 31
0.0
  0
ENDBLK
  5
43
  8
0
  0
BLOCK
  8
KCAD_DIMS
  2
KCAD_NONE
 70
     0
 10
0.0
 20
0.0
 30
0.0
  3
KCAD_NONE
  1

  0
LINE
  5
45
  8
0
  6
CONTINUOUS
 62
     0
 10
0.0
 20
0.0
 30
0.0
 11
-1.0
 21
0.0
 31
0.0
  0
ENDBLK
  5
47
  8
0
  0
BLOCK
  8
0
  2
_CLOSED
 70
     0
 10
0.0
 20
0.0
 30
0.0
  3
_CLOSED
  1

  0
LINE
  5
FE
  8
0
  6
CONTINUOUS
 62
     0
 10
-1.0
 20
0.166667
 30
0.0
 11
0.0
 21
0.0
 31
0.0
  0
LINE
  5
FF
  8
0
  6
CONTINUOUS
 62
     0
 10
0.0
 20
0.0
 30
0.0
 11
-1.0
 21
-0.166667
 31
0.0
  0
LINE
  5
100
  8
0
  6
CONTINUOUS
 62
     0
 10
-1.0
 20
0.166667
 30
0.0
 11
-1.0
 21
-0.166667
 31
0.0
  0
LINE
  5
101
  8
0
  6
CONTINUOUS
 62
     0
 10
0.0
 20
0.0
 30
0.0
 11
-1.0
 21
0.0
 31
0.0
  0
ENDBLK
  5
102
  8
0
  0
BLOCK
  8
0
  2
_DOT
 70
     0
 10
0.0
 20
0.0
 30
0.0
  3
_DOT
  1

  0
POLYLINE
  5
105
  8
0
  6
BYBLOCK
 62
     0
 66
     1
 10
0.0
 20
0.0
 30
0.0
 70
     1
 40
0.5
 41
0.5
  0
VERTEX
  5
F67
  8
0
  6
BYBLOCK
 62
     0
 10
-0.25
 20
0.0
 30
0.0
 42
1.0
  0
VERTEX
  5
F68
  8
0
  6
BYBLOCK
 62
     0
 10
0.25
 20
0.0
 30
0.0
 42
1.0
  0
SEQEND
  5
F69
  8
0
  6
BYBLOCK
 62
     0
  0
LINE
  5
109
  8
0
  6
CONTINUOUS
 62
     0
 10
-0.5
 20
0.0
 30
0.0
 11
-1.0
 21
0.0
 31
0.0
  0
ENDBLK
  5
10A
  8
0
  0
BLOCK
  8
0
  2
_CLOSEDBLANK
 70
     0
 10
0.0
 20
0.0
 30
0.0
  3
_CLOSEDBLANK
  1

  0
LINE
  5
10D
  8
0
  6
CONTINUOUS
 62
     0
 10
-1.0
 20
0.166667
 30
0.0
 11
0.0
 21
0.0
 31
0.0
  0
LINE
  5
10E
  8
0
  6
CONTINUOUS
 62
     0
 10
0.0
 20
0.0
 30
0.0
 11
-1.0
 21
-0.166667
 31
0.0
  0
LINE
  5
10F
  8
0
  6
CONTINUOUS
 62
     0
 10
-1.0
 20
0.166667
 30
0.0
 11
-1.0
 21
-0.166667
 31
0.0
  0
ENDBLK
  5
110
  8
0
  0
BLOCK
  8
0
  2
_OBLIQUE
 70
     0
 10
0.0
 20
0.0
 30
0.0
  3
_OBLIQUE
  1

  0
LINE
  5
113
  8
0
  6
CONTINUOUS
 62
     0
 10
-0.5
 20
-0.5
 30
0.0
 11
0.5
 21
0.5
 31
0.0
  0
ENDBLK
  5
114
  8
0
  0
BLOCK
  8
0
  2
_ARCHTICK
 70
     0
 10
0.0
 20
0.0
 30
0.0
  3
_ARCHTICK
  1

  0
POLYLINE
  5
117
  8
0
  6
BYBLOCK
 62
     0
 66
     1
 10
0.0
 20
0.0
 30
0.0
 40
0.15
 41
0.15
  0
VERTEX
  5
F6A
  8
0
  6
BYBLOCK
 62
     0
 10
-0.5
 20
-0.5
 30
0.0
  0
VERTEX
  5
F6B
  8
0
  6
BYBLOCK
 62
     0
 10
0.5
 20
0.5
 30
0.0
  0
SEQEND
  5
F6C
  8
0
  6
BYBLOCK
 62
     0
  0
ENDBLK
  5
11B
  8
0
  0
BLOCK
  8
0
  2
_OPEN
 70
     0
 10
0.0
 20
0.0
 30
0.0
  3
_OPEN
  1

  0
LINE
  5
11E
  8
0
  6
CONTINUOUS
 62
     0
 10
-1.0
 20
0.166667
 30
0.0
 11
0.0
 21
0.0
 31
0.0
  0
LINE
  5
11F
  8
0
  6
CONTINUOUS
 62
     0
 10
0.0
 20
0.0
 30
0.0
 11
-1.0
 21
-0.166667
 31
0.0
  0
LINE
  5
120
  8
0
  6
CONTINUOUS
 62
     0
 10
0.0
 20
0.0
 30
0.0
 11
-1.0
 21
0.0
 31
0.0
  0
ENDBLK
  5
121
  8
0
  0
BLOCK
  8
0
  2
_ORIGIN
 70
     0
 10
0.0
 20
0.0
 30
0.0
  3
_ORIGIN
  1

  0
CIRCLE
  5
124
  8
0
  6
BYBLOCK
 62
     0
 10
0.0
 20
0.0
 30
0.0
 40
0.5
  0
LINE
  5
125
  8
0
  6
CONTINUOUS
 62
     0
 10
0.0
 20
0.0
 30
0.0
 11
-1.0
 21
0.0
 31
0.0
  0
ENDBLK
  5
126
  8
0
  0
BLOCK
  8
0
  2
_OPEN90
 70
     0
 10
0.0
 20
0.0
 30
0.0
  3
_OPEN90
  1

  0
LINE
  5
129
  8
0
  6
CONTINUOUS
 62
     0
 10
-0.5
 20
0.5
 30
0.0
 11
0.0
 21
0.0
 31
0.0
  0
LINE
  5
12A
  8
0
  6
CONTINUOUS
 62
     0
 10
0.0
 20
0.0
 30
0.0
 11
-0.5
 21
-0.5
 31
0.0
  0
LINE
  5
12B
  8
0
  6
CONTINUOUS
 62
     0
 10
0.0
 20
0.0
 30
0.0
 11
-1.0
 21
0.0
 31
0.0
  0
ENDBLK
  5
12C
  8
0
  0
BLOCK
  8
0
  2
_OPEN30
 70
     0
 10
0.0
 20
0.0
 30
0.0
  3
_OPEN30
  1

  0
LINE
  5
12F
  8
0
  6
CONTINUOUS
 62
     0
 10
-1.0
 20
0.267949
 30
0.0
 11
0.0
 21
0.0
 31
0.0
  0
LINE
  5
130
  8
0
  6
CONTINUOUS
 62
     0
 10
0.0
 20
0.0
 30
0.0
 11
-1.0
 21
-0.267949
 31
0.0
  0
LINE
  5
131
  8
0
  6
CONTINUOUS
 62
     0
 10
0.0
 20
0.0
 30
0.0
 11
-1.0
 21
0.0
 31
0.0
  0
ENDBLK
  5
132
  8
0
  0
BLOCK
  8
0
  2
_DOTBLANK
 70
     0
 10
0.0
 20
0.0
 30
0.0
  3
_DOTBLANK
  1

  0
CIRCLE
  5
135
  8
0
  6
BYBLOCK
 62
     0
 10
0.0
 20
0.0
 30
0.0
 40
0.5
  0
LINE
  5
136
  8
0
  6
CONTINUOUS
 62
     0
 10
-0.5
 20
0.0
 30
0.0
 11
-1.0
 21
0.0
 31
0.0
  0
ENDBLK
  5
137
  8
0
  0
BLOCK
  8
0
  2
_DOTSMALL
 70
     0
 10
0.0
 20
0.0
 30
0.0
  3
_DOTSMALL
  1

  0
POLYLINE
  5
13A
  8
0
  6
BYBLOCK
 62
     0
 66
     1
 10
0.0
 20
0.0
 30
0.0
 70
     1
 40
0.5
 41
0.5
  0
VERTEX
  5
F6D
  8
0
  6
BYBLOCK
 62
     0
 10
-0.0625
 20
0.0
 30
0.0
 42
1.0
  0
VERTEX
  5
F6E
  8
0
  6
BYBLOCK
 62
     0
 10
0.0625
 20
0.0
 30
0.0
 42
1.0
  0
SEQEND
  5
F6F
  8
0
  6
BYBLOCK
 62
     0
  0
ENDBLK
  5
13E
  8
0
  0
BLOCK
  8
0
  2
_BOXFILLED
 70
     0
 10
0.0
 20
0.0
 30
0.0
  3
_BOXFILLED
  1

  0
SOLID
  5
141
  8
0
  6
BYBLOCK
 62
     0
 10
-0.5
 20
0.5
 30
0.0
 11
0.5
 21
0.5
 31
0.0
 12
-0.5
 22
-0.5
 32
0.0
 13
0.5
 23
-0.5
 33
0.0
  0
LINE
  5
142
  8
0
  6
CONTINUOUS
 62
     0
 10
-0.5
 20
0.0
 30
0.0
 11
-1.0
 21
0.0
 31
0.0
  0
ENDBLK
  5
143
  8
0
  0
BLOCK
  8
0
  2
_BOXBLANK
 70
     0
 10
0.0
 20
0.0
 30
0.0
  3
_BOXBLANK
  1

  0
LINE
  5
146
  8
0
  6
CONTINUOUS
 62
     0
 10
-0.5
 20
-0.5
 30
0.0
 11
0.5
 21
-0.5
 31
0.0
  0
LINE
  5
147
  8
0
  6
CONTINUOUS
 62
     0
 10
0.5
 20
-0.5
 30
0.0
 11
0.5
 21
0.5
 31
0.0
  0
LINE
  5
148
  8
0
  6
CONTINUOUS
 62
     0
 10
0.5
 20
0.5
 30
0.0
 11
-0.5
 21
0.5
 31
0.0
  0
LINE
  5
149
  8
0
  6
CONTINUOUS
 62
     0
 10
-0.5
 20
0.5
 30
0.0
 11
-0.5
 21
-0.5
 31
0.0
  0
LINE
  5
14A
  8
0
  6
CONTINUOUS
 62
     0
 10
-0.5
 20
0.0
 30
0.0
 11
-1.0
 21
0.0
 31
0.0
  0
ENDBLK
  5
14B
  8
0
  0
BLOCK
  8
0
  2
_DATUMFILLED
 70
     0
 10
0.0
 20
0.0
 30
0.0
  3
_DATUMFILLED
  1

  0
SOLID
  5
14E
  8
0
  6
BYBLOCK
 62
     0
 10
0.0
 20
0.5773500000000001
 30
0.0
 11
-1.0
 21
0.0
 31
0.0
 12
0.0
 22
-0.5773500000000001
 32
0.0
 13
0.0
 23
-0.5773500000000001
 33
0.0
  0
ENDBLK
  5
14F
  8
0
  0
BLOCK
  8
0
  2
_DATUMBLANK
 70
     0
 10
0.0
 20
0.0
 30
0.0
  3
_DATUMBLANK
  1

  0
LINE
  5
152
  8
0
  6
CONTINUOUS
 62
     0
 10
0.0
 20
0.5773500000000001
 30
0.0
 11
-1.0
 21
0.0
 31
0.0
  0
LINE
  5
153
  8
0
  6
CONTINUOUS
 62
     0
 10
-1.0
 20
0.0
 30
0.0
 11
0.0
 21
-0.5773500000000001
 31
0.0
  0
LINE
  5
154
  8
0
  6
CONTINUOUS
 62
     0
 10
0.0
 20
-0.5773500000000001
 30
0.0
 11
0.0
 21
0.5773500000000001
 31
0.0
  0
ENDBLK
  5
155
  8
0
  0
BLOCK
  8
0
  2
_INTEGRAL
 70
     0
 10
0.0
 20
0.0
 30
0.0
  3
_INTEGRAL
  1

  0
ARC
  5
158
  8
0
  6
BYBLOCK
 62
     0
 10
0.444888
 20
-0.091335
 30
0.0
 40
0.454167
 50
102.0
 51
168.0
  0
ARC
  5
159
  8
0
  6
BYBLOCK
 62
     0
 10
-0.444888
 20
0.091335
 30
0.0
 40
0.454167
 50
282.0
 51
348.0
  0
ENDBLK
  5
15A
  8
0
  0
BLOCK
  8
0
 62
     7
  2
_ORIGIN2
 70
     0
 10
0.0
 20
0.0
 30
0.0
  3
_ORIGIN2
  1

  0
CIRCLE
  5
1F2
  8
0
  6
CONTINUOUS
 62
     0
 10
0.0
 20
0.0
 30
0.0
 40
0.5
  0
CIRCLE
  5
1F3
  8
0
  6
CONTINUOUS
 62
     0
 10
0.0
 20
0.0
 30
0.0
 40
0.25
  0
LINE
  5
1F4
  8
0
  6
CONTINUOUS
 62
     0
 10
-0.5
 20
0.0
 30
0.0
 11
-1.0
 21
0.0
 31
0.0
  0
ENDBLK
  5
1F6
  8
0
 62
     7
  0
BLOCK
  8
0
 62
     7
  2
KCAD_OPEN30
 70
     0
 10
0.0
 20
0.0
 30
0.0
  3
KCAD_OPEN30
  1

  0
LINE
  5
1F8
  8
0
  6
CONTINUOUS
 62
     0
 10
0.0
 20
0.0
 30
0.0
 11
-1.0
 21
0.0
 31
0.0
  0
LINE
  5
1F9
  8
0
  6
CONTINUOUS
 62
     0
 10
0.0
 20
0.0
 30
0.0
 11
-1.0
 21
0.2679491924311227
 31
0.0
  0
LINE
  5
1FA
  8
0
  6
CONTINUOUS
 62
     0
 10
0.0
 20
0.0
 30
0.0
 11
-1.0
 21
-0.2679491924311227
 31
0.0
  0
ENDBLK
  5
1FC
  8
0
 62
     7
  0
BLOCK
  8
0
 62
    54
  2
_NONE
 70
     0
 10
0.0
 20
0.0
 30
0.0
  3
_NONE
  1

  0
ENDBLK
  5
224
  8
0
 62
    54
  0
BLOCK
  8
0
 62
     7
  2
_SMALL
 70
     0
 10
0.0
 20
0.0
 30
0.0
  3
_SMALL
  1

  0
CIRCLE
  5
284
  8
0
  6
BYBLOCK
 62
     0
 10
0.0
 20
0.0
 30
0.0
 40
0.25
  0
ENDBLK
  5
286
  8
0
 62
     7
  0
BLOCK
  8
0
 62
     7
  2
KCAD_OPEN_2
 70
     0
 10
0.0
 20
0.0
 30
0.0
  3
KCAD_OPEN_2
  1

  0
LINE
  5
288
  8
0
  6
CONTINUOUS
 62
     0
 10
0.0
 20
0.0
 30
0.0
 11
-2.0
 21
0.0
 31
0.0
  0
LINE
  5
289
  8
0
  6
CONTINUOUS
 62
     0
 10
0.0
 20
0.0
 30
0.0
 11
-2.0
 21
0.3167688806490725
 31
0.0
  0
LINE
  5
28A
  8
0
  6
CONTINUOUS
 62
     0
 10
0.0
 20
0.0
 30
0.0
 11
-2.0
 21
-0.3167688806490725
 31
0.0
  0
LINE
  5
28B
  8
0
  6
CONTINUOUS
 62
     0
 10
-2.0
 20
0.0
 30
0.0
 11
-4.0
 21
0.0
 31
0.0
  0
ENDBLK
  5
28D
  8
0
 62
     7
  0
BLOCK
  8
0
 62
     7
  2
KCAD_OPEN30_2
 70
     0
 10
0.0
 20
0.0
 30
0.0
  3
KCAD_OPEN30_2
  1

  0
LINE
  5
28F
  8
0
  6
CONTINUOUS
 62
     0
 10
0.0
 20
0.0
 30
0.0
 11
-2.0
 21
0.0
 31
0.0
  0
LINE
  5
290
  8
0
  6
CONTINUOUS
 62
     0
 10
0.0
 20
0.0
 30
0.0
 11
-2.0
 21
0.5358983848622455
 31
0.0
  0
LINE
  5
291
  8
0
  6
CONTINUOUS
 62
     0
 10
0.0
 20
0.0
 30
0.0
 11
-2.0
 21
-0.5358983848622455
 31
0.0
  0
LINE
  5
292
  8
0
  6
CONTINUOUS
 62
     0
 10
-2.0
 20
0.0
 30
0.0
 11
-4.0
 21
0.0
 31
0.0
  0
ENDBLK
  5
294
  8
0
 62
     7
  0
ENDSEC
  0
SECTION
  2
ENTITIES
  0
POLYLINE
  5
2A7
  8
KCAD_ZUWAKU
 66
     1
 10
0.0
 20
0.0
 30
0.0
 70
     1
  0
VERTEX
  5
2A8
  8
KCAD_ZUWAKU
 10
0.0
 20
0.0
 30
0.0
  0
VERTEX
  5
2A9
  8
KCAD_ZUWAKU
 10
420.0
 20
0.0
 30
0.0
  0
VERTEX
  5
2AA
  8
KCAD_ZUWAKU
 10
420.0
 20
297.0
 30
0.0
  0
VERTEX
  5
2AB
  8
KCAD_ZUWAKU
 10
0.0
 20
297.0
 30
0.0
  0
SEQEND
  5
2AC
  8
KCAD_ZUWAKU
  0
POLYLINE
  5
2D2
  8
KCAD_ZUWAKU
  6
CONTINUOUS
 66
     1
 10
0.0
 20
0.0
 30
0.0
 70
     1
  0
VERTEX
  5
2D3
  8
KCAD_ZUWAKU
  6
CONTINUOUS
 10
0.0
 20
0.0
 30
0.0
  0
VERTEX
  5
2D4
  8
KCAD_ZUWAKU
  6
CONTINUOUS
 10
420.0
 20
0.0
 30
0.0
  0
VERTEX
  5
2D5
  8
KCAD_ZUWAKU
  6
CONTINUOUS
 10
420.0
 20
297.0
 30
0.0
  0
VERTEX
  5
2D6
  8
KCAD_ZUWAKU
  6
CONTINUOUS
 10
0.0
 20
297.0
 30
0.0
  0
SEQEND
  5
2D7
  8
KCAD_ZUWAKU
  6
CONTINUOUS
  0
LINE
  5
E34
  8
0
  6
CONTINUOUS
 62
     3
 10
67.521246648214174
 20
286.74999999999977
 30
0.0
 11
72.52124664821406
 21
286.7500000000004
 31
0.0
  0
LINE
  5
E35
  8
0
  6
CONTINUOUS
 62
     3
 10
67.521246648214174
 20
267.24999999999977
 30
0.0
 11
72.521246648214174
 21
267.2500000000004
 31
0.0
  0
LINE
  5
E36
  8
0
  6
CONTINUOUS
 62
     3
 10
67.521246648214174
 20
261.69999999999987
 30
0.0
 11
72.521246648214401
 21
261.69999999999987
 31
0.0
  0
LINE
  5
E37
  8
0
  6
CONTINUOUS
 62
     3
 10
72.521246648214174
 20
254.1999999999999
 30
0.0
 11
67.021246648214287
 21
254.1999999999999
 31
0.0
  0
LINE
  5
E38
  8
0
  6
CENTER
 62
   253
 10
111.0
 20
277.00000000000011
 30
0.0
 11
34.0
 21
277.00000000000011
 31
0.0
  0
LINE
  5
E39
  8
0
  6
CONTINUOUS
 62
     3
 10
35.299999999999947
 20
252.0000000000002
 30
0.0
 11
109.7
 21
252.0000000000002
 31
0.0
  0
ARC
  5
E3A
  8
0
  6
CONTINUOUS
 62
     3
 10
15.70000000000004
 20
257.3000000000003
 30
0.0
 40
0.2
 50
90.0
 51
180.0
  0
ARC
  5
E3B
  8
0
  6
CONTINUOUS
 62
     3
 10
15.699999999999809
 20
257.30000000000052
 30
0.0
 40
0.6999999999999318
 50
90.0
 51
179.99999999998369
  0
ARC
  5
E3C
  8
0
  6
CONTINUOUS
 62
     3
 10
15.69999999999993
 20
257.30000000000069
 30
0.0
 40
0.7881634903541226
 50
89.999999999993491
 51
179.99999999999341
  0
ARC
  5
E3D
  8
0
  6
CONTINUOUS
 62
     3
 10
15.650000000000089
 20
256.91018016556291
 30
0.0
 40
0.15
 50
180.00000000002271
 51
254.87833468512559
  0
ARC
  5
E3E
  8
0
  6
CONTINUOUS
 62
     3
 10
15.299999999999949
 20
254.40000000000029
 30
0.0
 40
0.2
 50
270.0
 51
359.99999999998369
  0
ARC
  5
E3F
  8
0
  6
CONTINUOUS
 62
     3
 10
15.64999999999986
 20
254.68981983443689
 30
0.0
 40
0.15
 50
105.1216653148273
 51
179.99999999997721
  0
LINE
  5
E40
  8
0
  6
CONTINUOUS
 62
     3
 10
10.550000000000059
 20
261.70000000000022
 30
0.0
 11
29.450000000000038
 21
261.70000000000022
 31
0.0
  0
LINE
  5
E41
  8
0
  6
CONTINUOUS
 62
     3
 10
15.0
 20
261.69999999999999
 30
0.0
 11
14.70000000000004
 21
262.0
 31
0.0
  0
LINE
  5
E42
  8
0
  6
HIDDEN
 62
     4
 10
14.0
 20
259.0
 30
0.0
 11
14.0
 21
262.0
 31
0.0
  0
LINE
  5
E43
  8
0
  6
CONTINUOUS
 62
     3
 10
10.0
 20
261.60000000000002
 30
0.0
 11
10.0
 21
258.29600844452062
 31
0.0
  0
LINE
  5
E44
  8
4
  6
CONTINUOUS
 62
     3
 10
13.460000000240029
 20
258.63818181682041
 30
0.0
 11
13.460000000240029
 21
259.16181818046027
 31
0.0
  0
LINE
  5
E45
  8
4
  6
CONTINUOUS
 62
     3
 10
11.54000000024007
 20
259.16181818046027
 30
0.0
 11
11.54000000024007
 21
258.63818181682041
 31
0.0
  0
LINE
  5
E46
  8
0
  6
HIDDEN
 62
     4
 10
11.0
 20
259.0
 30
0.0
 11
11.299999999999949
 21
258.48038475773001
 31
0.0
  0
ARC
  5
E47
  8
4
  6
CONTINUOUS
 62
     3
 10
12.971272727512989
 20
258.42872727137029
 30
0.0
 40
0.2094545454545
 50
90.0
 51
180.0
  0
LINE
  5
E48
  8
4
  6
CONTINUOUS
 62
     3
 10
12.76181818205896
 20
257.9399999986403
 30
0.0
 11
12.76181818205896
 21
258.42872727137029
 31
0.0
  0
LINE
  5
E49
  8
4
  6
CONTINUOUS
 62
     3
 10
12.971272727512989
 20
258.63818181682041
 30
0.0
 11
13.460000000240029
 21
258.63818181682041
 31
0.0
  0
ARC
  5
E4A
  8
0
  6
CONTINUOUS
 62
     3
 10
10.19999999999993
 20
258.51961524227062
 30
0.0
 40
0.3
 50
228.18968510424051
 51
239.99999999999869
  0
ARC
  5
E4B
  8
0
  6
CONTINUOUS
 62
     3
 10
10.19999999999993
 20
257.48038475772933
 30
0.0
 40
0.3
 50
120.00000000000119
 51
131.81031489576691
  0
ARC
  5
E4C
  8
0
  6
CONTINUOUS
 62
     3
 10
9.8999999999999773
 20
258.0
 30
0.0
 40
0.3
 50
299.99999999999238
 51
59.999999999998749
  0
LINE
  5
E4D
  8
4
  6
CONTINUOUS
 62
     3
 10
12.23818181842193
 20
258.42872727137029
 30
0.0
 11
12.23818181842193
 21
257.9399999986403
 31
0.0
  0
ARC
  5
E4E
  8
4
  6
CONTINUOUS
 62
     3
 10
12.028727272968011
 20
258.42872727137029
 30
0.0
 40
0.2094545454545
 50
0.0
 51
90.0
  0
LINE
  5
E4F
  8
4
  6
CONTINUOUS
 62
     3
 10
11.54000000024007
 20
258.63818181682041
 30
0.0
 11
12.028727272968011
 21
258.63818181682041
 31
0.0
  0
LINE
  5
E50
  8
0
  6
HIDDEN
 62
     4
 10
11.299999999999949
 20
258.0
 30
0.0
 11
12.5
 21
257.30717967697001
 31
0.0
  0
LINE
  5
E51
  8
4
  6
CONTINUOUS
 62
     3
 10
12.23818181842193
 20
257.9399999986403
 30
0.0
 11
12.76181818205896
 21
257.9399999986403
 31
0.0
  0
LINE
  5
E52
  8
0
  6
HIDDEN
 62
     4
 10
11.299999999999949
 20
258.0
 30
0.0
 11
13.70000000000004
 21
258.0
 31
0.0
  0
LINE
  5
E53
  8
0
  6
HIDDEN
 62
     4
 10
13.70000000000004
 20
258.0
 30
0.0
 11
12.5
 21
257.30717967697001
 31
0.0
  0
ARC
  5
E54
  8
4
  6
CONTINUOUS
 62
     3
 10
12.971272727512989
 20
259.37127272592028
 30
0.0
 40
0.2094545454545
 50
180.0
 51
270.0
  0
LINE
  5
E55
  8
4
  6
CONTINUOUS
 62
     3
 10
12.76181818205896
 20
259.37127272592028
 30
0.0
 11
12.76181818205896
 21
259.85999999864032
 31
0.0
  0
LINE
  5
E56
  8
4
  6
CONTINUOUS
 62
     3
 10
13.460000000240029
 20
259.16181818046027
 30
0.0
 11
12.971272727512989
 21
259.16181818046027
 31
0.0
  0
LINE
  5
E57
  8
4
  6
CONTINUOUS
 62
     3
 10
12.028727272968011
 20
259.16181818046027
 30
0.0
 11
11.54000000024007
 21
259.16181818046027
 31
0.0
  0
ARC
  5
E58
  8
4
  6
CONTINUOUS
 62
     3
 10
12.028727272968011
 20
259.37127272592028
 30
0.0
 40
0.2094545454545
 50
270.0
 51
0.0
  0
LINE
  5
E59
  8
4
  6
CONTINUOUS
 62
     3
 10
12.23818181842193
 20
259.85999999864032
 30
0.0
 11
12.23818181842193
 21
259.37127272592028
 31
0.0
  0
LINE
  5
E5A
  8
0
  6
CONTINUOUS
 62
     3
 10
10.550000000000059
 20
261.70000000000022
 30
0.0
 11
10.25000000000011
 21
261.40000000000032
 31
0.0
  0
LINE
  5
E5B
  8
4
  6
CONTINUOUS
 62
     3
 10
12.76181818205896
 20
259.85999999864032
 30
0.0
 11
12.23818181842193
 21
259.85999999864032
 31
0.0
  0
LINE
  5
E5C
  8
0
  6
HIDDEN
 62
     4
 10
11.299999999999949
 20
258.0
 30
0.0
 11
11.299999999999949
 21
262.0
 31
0.0
  0
LINE
  5
E5D
  8
0
  6
HIDDEN
 62
     4
 10
13.70000000000004
 20
258.0
 30
0.0
 11
13.70000000000004
 21
262.0
 31
0.0
  0
LINE
  5
E5E
  8
0
  6
CONTINUOUS
 62
     3
 10
10.39999999999997
 20
262.0
 30
0.0
 11
10.0
 21
261.60000000000002
 31
0.0
  0
LINE
  5
E5F
  8
0
  6
HIDDEN
 62
     4
 10
11.0
 20
259.0
 30
0.0
 11
11.0
 21
262.0
 31
0.0
  0
LINE
  5
E60
  8
0
  6
CONTINUOUS
 62
     3
 10
10.39999999999997
 20
262.0
 30
0.0
 11
14.70000000000004
 21
262.0
 31
0.0
  0
CIRCLE
  5
E61
  8
2
  6
CONTINUOUS
 62
     3
 10
12.5
 20
258.90000000000032
 30
0.0
 40
1.6000000000000001
  0
LINE
  5
E62
  8
0
  6
HIDDEN
 62
     4
 10
14.0
 20
259.0
 30
0.0
 11
13.70000000000004
 21
258.48038475773001
 31
0.0
  0
LINE
  5
E63
  8
0
  6
HIDDEN
 62
     4
 10
11.0
 20
259.0
 30
0.0
 11
14.0
 21
259.0
 31
0.0
  0
LINE
  5
E64
  8
0
  6
CONTINUOUS
 62
     3
 10
10.0
 20
254.59999999999999
 30
0.0
 11
10.39999999999997
 21
254.19999999999999
 31
0.0
  0
LINE
  5
E65
  8
0
  6
CONTINUOUS
 62
     3
 10
10.549999999999841
 20
254.2000000000003
 30
0.0
 11
10.249999999999879
 21
254.50000000000031
 31
0.0
  0
LINE
  5
E66
  8
0
  6
CONTINUOUS
 62
     3
 10
10.39999999999997
 20
254.19999999999999
 30
0.0
 11
10.549999999999841
 21
254.2000000000003
 31
0.0
  0
LINE
  5
E67
  8
0
  6
CONTINUOUS
 62
     3
 10
10.549999999999841
 20
254.2000000000003
 30
0.0
 11
15.299999999999949
 21
254.20000000000019
 31
0.0
  0
LINE
  5
E68
  8
0
  6
CONTINUOUS
 62
     3
 10
10.25000000000011
 20
261.40000000000032
 30
0.0
 11
10.249999999999879
 21
254.50000000000031
 31
0.0
  0
LINE
  5
E69
  8
0
  6
CONTINUOUS
 62
     3
 10
14.99999999999943
 20
254.20000000000061
 30
0.0
 11
15.000000000000449
 21
257.30000000000069
 31
0.0
  0
LINE
  5
E6A
  8
0
  6
CONTINUOUS
 62
     3
 10
14.911836509645241
 20
254.20000000000081
 30
0.0
 11
14.91183650964558
 21
257.30000000000081
 31
0.0
  0
LINE
  5
E6B
  8
0
  6
CONTINUOUS
 62
     3
 10
10.0
 20
257.70399155547938
 30
0.0
 11
10.0
 21
254.59999999999999
 31
0.0
  0
LINE
  5
E6C
  8
0
  6
CENTER
 62
   253
 10
12.5
 20
263.0
 30
0.0
 11
12.499999999999879
 21
256.30717967697001
 31
0.0
  0
ARC
  5
E6D
  8
0
  6
CONTINUOUS
 62
     3
 10
69.221246648218084
 20
269.49999999999989
 30
0.0
 40
2.5
 50
140.20818050044591
 51
219.79181949956259
  0
LINE
  5
E6E
  8
0
  6
CONTINUOUS
 62
     3
 10
68.521246648214174
 20
267.24999999999989
 30
0.0
 11
68.521246648214174
 21
286.75
 31
0.0
  0
LINE
  5
E6F
  8
0
  6
CONTINUOUS
 62
     3
 10
67.521246648214174
 20
267.24999999999989
 30
0.0
 11
67.521246648214401
 21
286.74999999999977
 31
0.0
  0
LINE
  5
E70
  8
0
  6
HIDDEN
 62
     2
 10
45.499999999999993
 20
254.20000000000019
 30
0.0
 11
39.5
 21
254.20000000000019
 31
0.0
  0
LINE
  5
E71
  8
0
  6
CONTINUOUS
 62
     3
 10
67.021246648214174
 20
256.81348045044763
 30
0.0
 11
35.0
 21
256.81348045044763
 31
0.0
  0
LINE
  5
E72
  8
0
  6
CONTINUOUS
 62
     3
 10
67.021246648214174
 20
256.15000000000032
 30
0.0
 11
35.000000000000107
 21
256.15000000000032
 31
0.0
  0
LINE
  5
E73
  8
0
  6
CONTINUOUS
 62
     3
 10
67.021246648214174
 20
255.45000000000019
 30
0.0
 11
35.0
 21
255.45000000000019
 31
0.0
  0
LINE
  5
E74
  8
0
  6
CONTINUOUS
 62
     3
 10
67.021246648214174
 20
254.78651954955279
 30
0.0
 11
35.0
 21
254.78651954955279
 31
0.0
  0
LINE
  5
E75
  8
0
  6
CONTINUOUS
 62
     3
 10
35.299999999999947
 20
257.50000000000023
 30
0.0
 11
67.021246648214174
 21
257.50000000000023
 31
0.0
  0
LINE
  5
E76
  8
0
  6
HIDDEN
 62
     2
 10
40.75
 20
254.20000000000019
 30
0.0
 11
40.75
 21
252.0000000000002
 31
0.0
  0
LINE
  5
E77
  8
0
  6
CONTINUOUS
 62
     3
 10
35.0
 20
252.30000000000021
 30
0.0
 11
35.299999999999947
 21
252.0000000000002
 31
0.0
  0
LINE
  5
E78
  8
0
  6
CONTINUOUS
 62
     3
 10
24.100000000000129
 20
252.0000000000002
 30
0.0
 11
24.50000000000011
 21
252.40000000000029
 31
0.0
  0
LINE
  5
E79
  8
0
  6
HIDDEN
 62
     2
 10
21.75
 20
254.20000000000019
 30
0.0
 11
21.75
 21
252.0000000000002
 31
0.0
  0
LINE
  5
E7A
  8
0
  6
HIDDEN
 62
     2
 10
18.25
 20
254.20000000000019
 30
0.0
 11
18.25
 21
252.0000000000002
 31
0.0
  0
LINE
  5
E7B
  8
0
  6
CENTER
 62
   253
 10
20.0
 20
251.0000000000002
 30
0.0
 11
20.0
 21
263.0
 31
0.0
  0
LINE
  5
E7C
  8
0
  6
CONTINUOUS
 62
     3
 10
15.900000000000089
 20
252.0000000000002
 30
0.0
 11
15.50000000000011
 21
252.40000000000029
 31
0.0
  0
ARC
  5
E7D
  8
0
  6
CONTINUOUS
 62
     3
 10
17.819615242270618
 20
252.20000000000019
 30
0.0
 40
0.3
 50
210.0000000000019
 51
221.81031489577379
  0
LINE
  5
E7E
  8
0
  6
CONTINUOUS
 62
     3
 10
24.100000000000129
 20
252.0000000000002
 30
0.0
 11
17.596008444520631
 21
252.0000000000002
 31
0.0
  0
ARC
  5
E7F
  8
0
  6
CONTINUOUS
 62
     3
 10
16.78038475772928
 20
252.20000000000019
 30
0.0
 40
0.3
 50
318.18968510421752
 51
329.99999999999801
  0
LINE
  5
E80
  8
0
  6
CONTINUOUS
 62
     3
 10
17.003991555479271
 20
252.0000000000002
 30
0.0
 11
15.89999999999997
 21
252.0000000000002
 31
0.0
  0
ARC
  5
E81
  8
0
  6
CONTINUOUS
 62
     3
 10
17.299999999999951
 20
251.90000000000009
 30
0.0
 40
0.3
 50
30.000000000000139
 51
149.99999999999801
  0
LINE
  5
E82
  8
0
  6
HIDDEN
 62
     4
 10
29.0
 20
259.0
 30
0.0
 11
28.700000000000038
 21
258.48038475773001
 31
0.0
  0
CIRCLE
  5
E83
  8
2
  6
CONTINUOUS
 62
     3
 10
27.5
 20
258.90000000000032
 30
0.0
 40
1.6000000000000001
  0
LINE
  5
E84
  8
0
  6
HIDDEN
 62
     4
 10
26.0
 20
259.0
 30
0.0
 11
29.0
 21
259.0
 31
0.0
  0
LINE
  5
E85
  8
0
  6
CONTINUOUS
 62
     3
 10
25.300000000000061
 20
262.0
 30
0.0
 11
29.600000000000019
 21
262.0
 31
0.0
  0
LINE
  5
E86
  8
0
  6
CONTINUOUS
 62
     3
 10
29.450000000000038
 20
254.20000000000019
 30
0.0
 11
24.700000000000038
 21
254.20000000000019
 31
0.0
  0
LINE
  5
E87
  8
4
  6
CONTINUOUS
 62
     3
 10
26.54000000024007
 20
259.16181818046027
 30
0.0
 11
26.54000000024007
 21
258.63818181682041
 31
0.0
  0
LINE
  5
E88
  8
4
  6
CONTINUOUS
 62
     3
 10
28.460000000240029
 20
258.63818181682041
 30
0.0
 11
28.460000000240029
 21
259.16181818046027
 31
0.0
  0
LINE
  5
E89
  8
4
  6
CONTINUOUS
 62
     3
 10
26.54000000024007
 20
258.63818181682041
 30
0.0
 11
27.028727272968009
 21
258.63818181682041
 31
0.0
  0
LINE
  5
E8A
  8
4
  6
CONTINUOUS
 62
     3
 10
27.238181818421928
 20
258.42872727137029
 30
0.0
 11
27.238181818421928
 21
257.9399999986403
 31
0.0
  0
LINE
  5
E8B
  8
4
  6
CONTINUOUS
 62
     3
 10
27.76181818205896
 20
257.9399999986403
 30
0.0
 11
27.76181818205896
 21
258.42872727137029
 31
0.0
  0
LINE
  5
E8C
  8
4
  6
CONTINUOUS
 62
     3
 10
27.238181818421928
 20
257.9399999986403
 30
0.0
 11
27.76181818205896
 21
257.9399999986403
 31
0.0
  0
ARC
  5
E8D
  8
4
  6
CONTINUOUS
 62
     3
 10
27.028727272968009
 20
258.42872727137029
 30
0.0
 40
0.2094545454545
 50
0.0
 51
90.0
  0
ARC
  5
E8E
  8
4
  6
CONTINUOUS
 62
     3
 10
27.971272727512989
 20
258.42872727137029
 30
0.0
 40
0.2094545454545
 50
90.0
 51
180.0
  0
LINE
  5
E8F
  8
4
  6
CONTINUOUS
 62
     3
 10
27.971272727512989
 20
258.63818181682041
 30
0.0
 11
28.460000000240029
 21
258.63818181682041
 31
0.0
  0
LINE
  5
E90
  8
0
  6
HIDDEN
 62
     4
 10
28.700000000000038
 20
258.0
 30
0.0
 11
27.5
 21
257.30717967697001
 31
0.0
  0
LINE
  5
E91
  8
4
  6
CONTINUOUS
 62
     3
 10
27.028727272968009
 20
259.16181818046027
 30
0.0
 11
26.54000000024007
 21
259.16181818046027
 31
0.0
  0
LINE
  5
E92
  8
4
  6
CONTINUOUS
 62
     3
 10
28.460000000240029
 20
259.16181818046027
 30
0.0
 11
27.971272727512989
 21
259.16181818046027
 31
0.0
  0
LINE
  5
E93
  8
4
  6
CONTINUOUS
 62
     3
 10
27.76181818205896
 20
259.37127272592028
 30
0.0
 11
27.76181818205896
 21
259.85999999864032
 31
0.0
  0
LINE
  5
E94
  8
4
  6
CONTINUOUS
 62
     3
 10
27.76181818205896
 20
259.85999999864032
 30
0.0
 11
27.238181818421928
 21
259.85999999864032
 31
0.0
  0
LINE
  5
E95
  8
4
  6
CONTINUOUS
 62
     3
 10
27.238181818421928
 20
259.85999999864032
 30
0.0
 11
27.238181818421928
 21
259.37127272592028
 31
0.0
  0
ARC
  5
E96
  8
4
  6
CONTINUOUS
 62
     3
 10
27.028727272968009
 20
259.37127272592028
 30
0.0
 40
0.2094545454545
 50
270.0
 51
0.0
  0
ARC
  5
E97
  8
4
  6
CONTINUOUS
 62
     3
 10
27.971272727512989
 20
259.37127272592028
 30
0.0
 40
0.2094545454545
 50
180.0
 51
270.0
  0
LINE
  5
E98
  8
0
  6
HIDDEN
 62
     4
 10
28.700000000000038
 20
258.0
 30
0.0
 11
28.700000000000038
 21
262.0
 31
0.0
  0
LINE
  5
E99
  8
0
  6
CONTINUOUS
 62
     3
 10
24.499999999999879
 20
256.91018016556268
 30
0.0
 11
24.5
 21
257.3000000000003
 31
0.0
  0
ARC
  5
E9A
  8
0
  6
CONTINUOUS
 62
     3
 10
24.64999999999986
 20
255.7999999999999
 30
0.0
 40
1.0000000000003411
 50
105.12166531484741
 51
160.73122450849991
  0
LINE
  5
E9B
  8
0
  6
HIDDEN
 62
     4
 10
26.0
 20
259.0
 30
0.0
 11
26.299999999999951
 21
258.48038475773001
 31
0.0
  0
LINE
  5
E9C
  8
0
  6
CONTINUOUS
 62
     3
 10
23.600000000000591
 20
256.13000000000028
 30
0.0
 11
23.706019067988791
 21
256.13000000000028
 31
0.0
  0
ARC
  5
E9D
  8
0
  6
CONTINUOUS
 62
     3
 10
24.349999999999909
 20
256.91018016556291
 30
0.0
 40
0.15
 50
285.12166531487429
 51
359.99999999997721
  0
ARC
  5
E9E
  8
0
  6
CONTINUOUS
 62
     3
 10
24.299999999999951
 20
257.3000000000003
 30
0.0
 40
0.6999999999999318
 50
0.0000000000130276
 51
90.0
  0
ARC
  5
E9F
  8
0
  6
CONTINUOUS
 62
     3
 10
24.299999999999951
 20
257.3000000000003
 30
0.0
 40
0.7881634903541226
 50
0.0
 51
90.0
  0
ARC
  5
EA0
  8
0
  6
CONTINUOUS
 62
     3
 10
24.299999999999951
 20
257.3000000000003
 30
0.0
 40
0.2
 50
0.0
 51
90.0
  0
LINE
  5
EA1
  8
0
  6
HIDDEN
 62
     4
 10
26.299999999999951
 20
258.0
 30
0.0
 11
26.299999999999951
 21
262.0
 31
0.0
  0
LINE
  5
EA2
  8
0
  6
CONTINUOUS
 62
     3
 10
25.0
 20
261.69999999999999
 30
0.0
 11
25.299999999999951
 21
262.0
 31
0.0
  0
LINE
  5
EA3
  8
0
  6
HIDDEN
 62
     4
 10
26.0
 20
259.0
 30
0.0
 11
26.0
 21
262.0
 31
0.0
  0
CIRCLE
  5
EA4
  8
0
  6
CONTINUOUS
 62
     3
 10
20.0
 20
259.65000000000032
 30
0.0
 40
0.6000000000000229
  0
LINE
  5
EA5
  8
0
  6
HIDDEN
 62
     4
 10
26.299999999999951
 20
258.0
 30
0.0
 11
27.5
 21
257.30717967697001
 31
0.0
  0
LINE
  5
EA6
  8
0
  6
HIDDEN
 62
     4
 10
26.299999999999951
 20
258.0
 30
0.0
 11
28.700000000000038
 21
258.0
 31
0.0
  0
LINE
  5
EA7
  8
0
  6
CONTINUOUS
 62
     3
 10
23.600000000000591
 20
255.47000000000031
 30
0.0
 11
23.70601906798856
 21
255.47000000000031
 31
0.0
  0
LINE
  5
EA8
  8
0
  6
CONTINUOUS
 62
     3
 10
24.5
 20
254.40000000000029
 30
0.0
 11
24.5
 21
254.68981983443689
 31
0.0
  0
ARC
  5
EA9
  8
0
  6
CONTINUOUS
 62
     3
 10
24.700000000000038
 20
254.40000000000029
 30
0.0
 40
0.2
 50
180.0000000000162
 51
270.0
  0
ARC
  5
EAA
  8
0
  6
CONTINUOUS
 62
     3
 10
24.350000000000129
 20
254.68981983443689
 30
0.0
 40
0.15
 50
0.0000000000227982
 51
74.878334685172675
  0
LINE
  5
EAB
  8
0
  6
CONTINUOUS
 62
     3
 10
24.50000000000011
 20
252.40000000000029
 30
0.0
 11
24.5
 21
254.40000000000029
 31
0.0
  0
ARC
  5
EAC
  8
0
  6
CONTINUOUS
 62
     3
 10
24.64999999999986
 20
255.7999999999999
 30
0.0
 40
1.0000000000003411
 50
199.26877549145519
 51
254.87833468515919
  0
LINE
  5
EAD
  8
0
  6
CONTINUOUS
 62
     3
 10
25.00000000000011
 20
254.20000000000019
 30
0.0
 11
24.999999999999321
 21
257.30000000000052
 31
0.0
  0
LINE
  5
EAE
  8
0
  6
CONTINUOUS
 62
     3
 10
25.088163490354301
 20
254.20000000000019
 30
0.0
 11
25.088163490354301
 21
257.3000000000003
 31
0.0
  0
LINE
  5
EAF
  8
0
  6
HIDDEN
 62
     2
 10
23.0
 20
254.20000000000019
 30
0.0
 11
23.0
 21
257.50000000000023
 31
0.0
  0
ARC
  5
EB0
  8
0
  6
CONTINUOUS
 62
     3
 10
23.600000000000591
 20
255.80000000000001
 30
0.0
 40
0.3300000000002683
 50
90.0
 51
270.0
  0
LINE
  5
EB1
  8
0
  6
CONTINUOUS
 62
     3
 10
16.399999999999409
 20
256.13000000000028
 30
0.0
 11
16.293980932011198
 21
256.13000000000028
 31
0.0
  0
LINE
  5
EB2
  8
0
  6
CONTINUOUS
 62
     3
 10
16.399999999999409
 20
255.47000000000031
 30
0.0
 11
16.293980932011429
 21
255.47000000000031
 31
0.0
  0
ARC
  5
EB3
  8
0
  6
CONTINUOUS
 62
     3
 10
16.399999999999409
 20
255.80000000000001
 30
0.0
 40
0.3300000000002683
 50
270.0
 51
90.0
  0
LINE
  5
EB4
  8
0
  6
HIDDEN
 62
     2
 10
17.0
 20
254.20000000000019
 30
0.0
 11
17.0
 21
257.50000000000023
 31
0.0
  0
LINE
  5
EB5
  8
0
  6
HIDDEN
 62
     2
 10
23.0
 20
254.20000000000019
 30
0.0
 11
17.0
 21
254.20000000000019
 31
0.0
  0
LINE
  5
EB6
  8
0
  6
CENTER
 62
   253
 10
27.499999999999879
 20
263.0
 30
0.0
 11
27.5
 21
256.30717967697001
 31
0.0
  0
ARC
  5
EB7
  8
0
  6
CONTINUOUS
 62
     3
 10
15.350000000000129
 20
255.7999999999999
 30
0.0
 40
1.0000000000003411
 50
19.268775491500051
 51
74.878334685152524
  0
ARC
  5
EB8
  8
0
  6
CONTINUOUS
 62
     3
 10
15.350000000000129
 20
255.7999999999999
 30
0.0
 40
1.0000000000003411
 50
285.1216653148407
 51
340.7312245085447
  0
LINE
  5
EB9
  8
0
  6
CONTINUOUS
 62
     3
 10
15.70000000000004
 20
257.50000000000023
 30
0.0
 11
24.299999999999951
 21
257.50000000000023
 31
0.0
  0
LINE
  5
EBA
  8
0
  6
CONTINUOUS
 62
     3
 10
15.699999999999809
 20
258.00000000000023
 30
0.0
 11
24.299999999999951
 21
258.00000000000023
 31
0.0
  0
LINE
  5
EBB
  8
0
  6
CONTINUOUS
 62
     3
 10
24.299999999999951
 20
258.08816349035442
 30
0.0
 11
15.69999999999993
 21
258.08816349035442
 31
0.0
  0
LINE
  5
EBC
  8
0
  6
CONTINUOUS
 62
     3
 10
15.50000000000011
 20
256.91018016556268
 30
0.0
 11
15.5
 21
257.3000000000003
 31
0.0
  0
LINE
  5
EBD
  8
0
  6
CONTINUOUS
 62
     3
 10
15.5
 20
254.40000000000029
 30
0.0
 11
15.499999999999879
 21
254.68981983443689
 31
0.0
  0
LINE
  5
EBE
  8
0
  6
CONTINUOUS
 62
     3
 10
15.50000000000011
 20
252.40000000000029
 30
0.0
 11
15.50000000000011
 21
254.40000000000029
 31
0.0
  0
LINE
  5
EBF
  8
0
  6
HIDDEN
 62
     2
 10
39.5
 20
254.20000000000019
 30
0.0
 11
39.5
 21
257.50000000000023
 31
0.0
  0
LINE
  5
EC0
  8
0
  6
CONTINUOUS
 62
     3
 10
35.0
 20
257.20000000000022
 30
0.0
 11
35.300000000000061
 21
257.50000000000023
 31
0.0
  0
LINE
  5
EC1
  8
0
  6
CONTINUOUS
 62
     3
 10
29.450000000000038
 20
261.70000000000022
 30
0.0
 11
29.75
 21
261.40000000000032
 31
0.0
  0
LINE
  5
EC2
  8
0
  6
CONTINUOUS
 62
     3
 10
29.600000000000019
 20
262.0
 30
0.0
 11
30.0
 21
261.60000000000002
 31
0.0
  0
LINE
  5
EC3
  8
0
  6
CONTINUOUS
 62
     3
 10
29.75
 20
254.50000000000031
 30
0.0
 11
29.450000000000038
 21
254.20000000000019
 31
0.0
  0
LINE
  5
EC4
  8
0
  6
CONTINUOUS
 62
     3
 10
29.450000000000038
 20
254.20000000000019
 30
0.0
 11
29.600000000000019
 21
254.19999999999999
 31
0.0
  0
LINE
  5
EC5
  8
0
  6
CONTINUOUS
 62
     3
 10
29.600000000000019
 20
254.19999999999999
 30
0.0
 11
30.0
 21
254.59999999999999
 31
0.0
  0
LINE
  5
EC6
  8
0
  6
CONTINUOUS
 62
     3
 10
30.0
 20
261.60000000000008
 30
0.0
 11
30.0
 21
254.59999999999991
 31
0.0
  0
LINE
  5
EC7
  8
0
  6
CONTINUOUS
 62
     3
 10
35.0
 20
257.20000000000022
 30
0.0
 11
35.0
 21
252.30000000000021
 31
0.0
  0
LINE
  5
EC8
  8
0
  6
CONTINUOUS
 62
     3
 10
29.75
 20
261.40000000000032
 30
0.0
 11
29.75
 21
254.50000000000031
 31
0.0
  0
LINE
  5
EC9
  8
0
  6
HIDDEN
 62
     4
 10
29.0
 20
259.0
 30
0.0
 11
29.0
 21
262.0
 31
0.0
  0
LINE
  5
ECA
  8
0
  6
HIDDEN
 62
     2
 10
64.25
 20
254.20000000000019
 30
0.0
 11
64.25
 21
252.0000000000002
 31
0.0
  0
LINE
  5
ECB
  8
0
  6
HIDDEN
 62
     2
 10
60.75
 20
254.20000000000019
 30
0.0
 11
60.75
 21
252.0000000000002
 31
0.0
  0
LINE
  5
ECC
  8
0
  6
CENTER
 62
   253
 10
62.5
 20
251.00000000000011
 30
0.0
 11
62.5
 21
258.50000000000023
 31
0.0
  0
LINE
  5
ECD
  8
0
  6
HIDDEN
 62
     2
 10
44.249999999999993
 20
254.20000000000019
 30
0.0
 11
44.249999999999993
 21
252.0000000000002
 31
0.0
  0
LINE
  5
ECE
  8
0
  6
CENTER
 62
   253
 10
42.5
 20
251.00000000000011
 30
0.0
 11
42.500000000000107
 21
258.50000000000023
 31
0.0
  0
LINE
  5
ECF
  8
0
  6
HIDDEN
 62
     2
 10
45.499999999999993
 20
254.20000000000019
 30
0.0
 11
45.499999999999993
 21
257.50000000000023
 31
0.0
  0
LINE
  5
ED0
  8
0
  6
HIDDEN
 62
     2
 10
42.5
 20
253.69999999999999
 30
0.0
 11
42.5
 21
258.50000000000023
 31
0.0
  0
LINE
  5
ED1
  8
0
  6
CONTINUOUS
 62
     3
 10
67.300309376984146
 20
267.89999999999992
 30
0.0
 11
67.521246648214174
 21
267.89999999999992
 31
0.0
  0
ARC
  5
ED2
  8
0
  6
CONTINUOUS
 62
     3
 10
69.221246648218084
 20
259.64999999999992
 30
0.0
 40
2.5
 50
140.20818050044591
 51
219.79181949956259
  0
LINE
  5
ED3
  8
0
  6
CONTINUOUS
 62
     3
 10
67.021246648214174
 20
257.99999999999977
 30
0.0
 11
67.304810739195773
 21
258.0499999999999
 31
0.0
  0
LINE
  5
ED4
  8
0
  6
CONTINUOUS
 62
     3
 10
67.300309376984146
 20
258.0499999999999
 30
0.0
 11
67.521246648214174
 21
258.0499999999999
 31
0.0
  0
LINE
  5
ED5
  8
0
  6
CONTINUOUS
 62
     3
 10
67.300309376984146
 20
261.25
 30
0.0
 11
67.521246648214174
 21
261.25
 31
0.0
  0
LINE
  5
ED6
  8
0
  6
HIDDEN
 62
     2
 10
65.5
 20
254.20000000000019
 30
0.0
 11
59.5
 21
254.20000000000019
 31
0.0
  0
LINE
  5
ED7
  8
0
  6
CONTINUOUS
 62
     3
 10
67.521246648214174
 20
261.69999999999987
 30
0.0
 11
67.521246648214174
 21
254.1999999999999
 31
0.0
  0
LINE
  5
ED8
  8
0
  6
CONTINUOUS
 62
     3
 10
68.521246648214174
 20
261.69999999999987
 30
0.0
 11
68.521246648214174
 21
254.1999999999999
 31
0.0
  0
LINE
  5
ED9
  8
0
  6
CONTINUOUS
 62
     3
 10
62.5
 20
253.69999999999999
 30
0.0
 11
62.5
 21
258.50000000000023
 31
0.0
  0
LINE
  5
EDA
  8
0
  6
HIDDEN
 62
     2
 10
65.5
 20
254.20000000000019
 30
0.0
 11
65.5
 21
257.50000000000023
 31
0.0
  0
LINE
  5
EDB
  8
0
  6
CONTINUOUS
 62
     3
 10
67.021246648214174
 20
257.99999999999977
 30
0.0
 11
67.021246648214174
 21
254.1999999999999
 31
0.0
  0
LINE
  5
EDC
  8
0
  6
HIDDEN
 62
     2
 10
59.5
 20
254.20000000000019
 30
0.0
 11
59.5
 21
257.50000000000023
 31
0.0
  0
LINE
  5
EDD
  8
0
  6
CONTINUOUS
 62
     3
 10
67.021246648214174
 20
281.49999999999989
 30
0.0
 11
35.300000000000061
 21
281.49999999999989
 31
0.0
  0
LINE
  5
EDE
  8
0
  6
CONTINUOUS
 62
     3
 10
67.021246648214174
 20
272.5
 30
0.0
 11
35.299999999999947
 21
272.5
 31
0.0
  0
CIRCLE
  5
EDF
  8
0
  6
CONTINUOUS
 62
     2
 10
42.5
 20
277.0
 30
0.0
 40
1.75
  0
CIRCLE
  5
EE0
  8
0
  6
CONTINUOUS
 62
     2
 10
42.5
 20
277.0
 30
0.0
 40
3.0
  0
LINE
  5
EE1
  8
0
  6
CONTINUOUS
 62
     3
 10
35.300000000000061
 20
281.49999999999989
 30
0.0
 11
35.0
 21
281.19999999999987
 31
0.0
  0
LINE
  5
EE2
  8
0
  6
CONTINUOUS
 62
     3
 10
35.0
 20
272.80000000000001
 30
0.0
 11
35.300000000000061
 21
272.5
 31
0.0
  0
LINE
  5
EE3
  8
0
  6
CONTINUOUS
 62
     3
 10
35.0
 20
272.80000000000001
 30
0.0
 11
35.0
 21
281.19999999999987
 31
0.0
  0
ARC
  5
EE4
  8
0
  6
CONTINUOUS
 62
     3
 10
69.221246648218312
 20
284.5
 30
0.0
 40
2.5
 50
140.20818050044591
 51
219.79181949956259
  0
LINE
  5
EE5
  8
0
  6
CENTER
 62
   253
 10
42.5
 20
273.0
 30
0.0
 11
42.500000000000107
 21
281.00000000000011
 31
0.0
  0
LINE
  5
EE6
  8
0
  6
CONTINUOUS
 62
     3
 10
67.300309376984387
 20
282.89999999999992
 30
0.0
 11
67.521246648214401
 21
282.89999999999992
 31
0.0
  0
LINE
  5
EE7
  8
0
  6
CONTINUOUS
 62
     3
 10
67.021246648214174
 20
282.00000000000011
 30
0.0
 11
67.521246648214174
 21
282.08816349035419
 31
0.0
  0
LINE
  5
EE8
  8
0
  6
CONTINUOUS
 62
     3
 10
67.300309376984146
 20
271.10000000000002
 30
0.0
 11
67.521246648214174
 21
271.10000000000002
 31
0.0
  0
LINE
  5
EE9
  8
0
  6
CONTINUOUS
 62
     3
 10
67.021246648214174
 20
271.99999999999977
 30
0.0
 11
67.521246648214174
 21
271.91183650964581
 31
0.0
  0
LINE
  5
EEA
  8
0
  6
CENTER
 62
   253
 10
62.499999999999893
 20
273.0
 30
0.0
 11
62.5
 21
281.0
 31
0.0
  0
LINE
  5
EEB
  8
0
  6
CONTINUOUS
 62
     3
 10
67.021246648214174
 20
271.99999999999977
 30
0.0
 11
67.021246648214174
 21
282.0
 31
0.0
  0
CIRCLE
  5
EEC
  8
0
  6
CONTINUOUS
 62
     2
 10
62.5
 20
277.0
 30
0.0
 40
1.75
  0
CIRCLE
  5
EED
  8
0
  6
CONTINUOUS
 62
     2
 10
62.5
 20
277.0
 30
0.0
 40
3.0
  0
LINE
  5
EEE
  8
0
  6
CONTINUOUS
 62
     3
 10
67.300309376984387
 20
286.10000000000002
 30
0.0
 11
67.521246648214401
 21
286.10000000000002
 31
0.0
  0
ARC
  5
EEF
  8
0
  6
CONTINUOUS
 62
     3
 10
95.778753351781916
 20
269.49999999999989
 30
0.0
 40
2.5
 50
320.20818050043721
 51
39.791819499554038
  0
CIRCLE
  5
EF0
  8
0
  6
CONTINUOUS
 62
     4
 10
87.521246648214174
 20
269.5
 30
0.0
 40
1.1999999999999991
  0
CIRCLE
  5
EF1
  8
0
  6
CONTINUOUS
 62
     4
 10
87.521246648214174
 20
269.5
 30
0.0
 40
1.5
  0
LINE
  5
EF2
  8
0
  6
CENTER
 62
   253
 10
87.521246648214174
 20
267.0
 30
0.0
 11
87.521246648214174
 21
272.0
 31
0.0
  0
CIRCLE
  5
EF3
  8
0
  6
CONTINUOUS
 62
     4
 10
77.52124664821315
 20
269.5
 30
0.0
 40
1.1999999999999991
  0
CIRCLE
  5
EF4
  8
0
  6
CONTINUOUS
 62
     4
 10
77.52124664821315
 20
269.5
 30
0.0
 40
1.5
  0
LINE
  5
EF5
  8
0
  6
CENTER
 62
   253
 10
77.52124664821315
 20
267.0
 30
0.0
 11
77.52124664821315
 21
272.0
 31
0.0
  0
LINE
  5
EF6
  8
0
  6
CONTINUOUS
 62
     3
 10
96.478753351785826
 20
267.24999999999989
 30
0.0
 11
96.478753351785826
 21
286.75
 31
0.0
  0
LINE
  5
EF7
  8
0
  6
CONTINUOUS
 62
     3
 10
97.478753351785841
 20
267.24999999999989
 30
0.0
 11
97.478753351785599
 21
286.74999999999977
 31
0.0
  0
LINE
  5
EF8
  8
0
  6
CONTINUOUS
 62
     3
 10
92.47875335178594
 20
286.7999999999999
 30
0.0
 11
92.478753351785826
 21
267.19999999999999
 31
0.0
  0
LINE
  5
EF9
  8
0
  6
CONTINUOUS
 62
     3
 10
72.52124664821406
 20
286.7999999999999
 30
0.0
 11
72.521246648214174
 21
267.19999999999999
 31
0.0
  0
LINE
  5
EFA
  8
0
  6
CONTINUOUS
 62
     3
 10
97.478753351785841
 20
267.24999999999977
 30
0.0
 11
92.478753351785826
 21
267.2500000000004
 31
0.0
  0
LINE
  5
EFB
  8
0
  6
CONTINUOUS
 62
     3
 10
97.478753351785372
 20
261.70000000000027
 30
0.0
 11
92.478753351785144
 21
261.70000000000022
 31
0.0
  0
LINE
  5
EFC
  8
0
  6
CONTINUOUS
 62
     3
 10
92.478753351785599
 20
254.20000000000019
 30
0.0
 11
97.978753351785485
 21
254.20000000000039
 31
0.0
  0
LINE
  5
EFD
  8
0
  6
HIDDEN
 62
     2
 10
84.25
 20
254.20000000000019
 30
0.0
 11
84.25
 21
252.0000000000002
 31
0.0
  0
LINE
  5
EFE
  8
0
  6
HIDDEN
 62
     2
 10
80.750000000000014
 20
254.20000000000019
 30
0.0
 11
80.750000000000014
 21
252.0000000000002
 31
0.0
  0
LINE
  5
EFF
  8
0
  6
CENTER
 62
   253
 10
82.5
 20
251.00000000000011
 30
0.0
 11
82.499999999999886
 21
258.50000000000023
 31
0.0
  0
LINE
  5
F00
  8
0
  6
CONTINUOUS
 62
     3
 10
72.721246648214105
 20
267.0
 30
0.0
 11
92.321246648213105
 21
267.0
 31
0.0
  0
LINE
  5
F01
  8
0
  6
HIDDEN
 62
     2
 10
85.5
 20
254.20000000000019
 30
0.0
 11
79.5
 21
254.20000000000019
 31
0.0
  0
LINE
  5
F02
  8
0
  6
CONTINUOUS
 62
     3
 10
72.721246648214105
 20
262.0
 30
0.0
 11
92.321246648213105
 21
262.0
 31
0.0
  0
LINE
  5
F03
  8
0
  6
CONTINUOUS
 62
     3
 10
72.721246648214105
 20
254.19999999999999
 30
0.0
 11
92.321246648213105
 21
254.1999999999999
 31
0.0
  0
LINE
  5
F04
  8
0
  6
HIDDEN
 62
     4
 10
79.021246648213605
 20
259.0
 30
0.0
 11
78.721246648213651
 21
258.48038475773001
 31
0.0
  0
LINE
  5
F05
  8
0
  6
HIDDEN
 62
     4
 10
76.021246648213605
 20
259.0
 30
0.0
 11
76.32124664821356
 21
258.48038475773001
 31
0.0
  0
LINE
  5
F06
  8
0
  6
HIDDEN
 62
     4
 10
76.32124664821356
 20
258.0
 30
0.0
 11
77.521246648213605
 21
257.30717967697001
 31
0.0
  0
LINE
  5
F07
  8
0
  6
HIDDEN
 62
     4
 10
76.32124664821356
 20
258.0
 30
0.0
 11
78.721246648213651
 21
258.0
 31
0.0
  0
LINE
  5
F08
  8
0
  6
HIDDEN
 62
     4
 10
78.721246648213651
 20
258.0
 30
0.0
 11
77.521246648213605
 21
257.30717967697001
 31
0.0
  0
LINE
  5
F09
  8
0
  6
HIDDEN
 62
     4
 10
76.021246648213605
 20
259.0
 30
0.0
 11
79.021246648213605
 21
259.0
 31
0.0
  0
LINE
  5
F0A
  8
0
  6
HIDDEN
 62
     4
 10
76.32124664821356
 20
258.0
 30
0.0
 11
76.32124664821356
 21
262.0
 31
0.0
  0
LINE
  5
F0B
  8
0
  6
HIDDEN
 62
     4
 10
78.721246648213651
 20
258.0
 30
0.0
 11
78.721246648213651
 21
262.0
 31
0.0
  0
LINE
  5
F0C
  8
0
  6
HIDDEN
 62
     4
 10
76.021246648213605
 20
259.0
 30
0.0
 11
76.021246648213605
 21
262.0
 31
0.0
  0
LINE
  5
F0D
  8
0
  6
HIDDEN
 62
     4
 10
79.021246648213605
 20
259.0
 30
0.0
 11
79.021246648213605
 21
262.0
 31
0.0
  0
LINE
  5
F0E
  8
0
  6
HIDDEN
 62
     2
 10
79.5
 20
254.20000000000019
 30
0.0
 11
79.5
 21
257.50000000000023
 31
0.0
  0
LINE
  5
F0F
  8
0
  6
CENTER
 62
   253
 10
77.521246648213605
 20
263.0
 30
0.0
 11
77.521246648213605
 21
256.30717967697001
 31
0.0
  0
LINE
  5
F10
  8
0
  6
CONTINUOUS
 62
     3
 10
72.52124664821406
 20
254.1999999999999
 30
0.0
 11
72.521246648214401
 21
261.80000000000013
 31
0.0
  0
LINE
  5
F11
  8
0
  6
CONTINUOUS
 62
     3
 10
72.721246648214105
 20
267.0
 30
0.0
 11
72.521246648214174
 21
267.19999999999999
 31
0.0
  0
LINE
  5
F12
  8
0
  6
CONTINUOUS
 62
     3
 10
72.721246648214105
 20
262.0
 30
0.0
 11
72.521246648214174
 21
261.7999999999999
 31
0.0
  0
LINE
  5
F13
  8
0
  6
CONTINUOUS
 62
     3
 10
72.721246648214105
 20
254.1999999999999
 30
0.0
 11
72.521246648214174
 21
254.39999999999989
 31
0.0
  0
LINE
  5
F14
  8
0
  6
CONTINUOUS
 62
     3
 10
92.278753351785895
 20
267.0
 30
0.0
 11
92.478753351785826
 21
267.19999999999999
 31
0.0
  0
LINE
  5
F15
  8
0
  6
CONTINUOUS
 62
     3
 10
92.278753351785426
 20
262.00000000000023
 30
0.0
 11
92.478753351785372
 21
261.80000000000018
 31
0.0
  0
LINE
  5
F16
  8
0
  6
CONTINUOUS
 62
     3
 10
92.278753351785653
 20
254.20000000000019
 30
0.0
 11
92.478753351785599
 21
254.4000000000002
 31
0.0
  0
LINE
  5
F17
  8
0
  6
CONTINUOUS
 62
     3
 10
92.478753351785713
 20
254.20000000000019
 30
0.0
 11
92.478753351785144
 21
261.80000000000052
 31
0.0
  0
LINE
  5
F18
  8
0
  6
HIDDEN
 62
     4
 10
89.021246648213605
 20
259.0
 30
0.0
 11
88.721246648213537
 21
258.48038475773001
 31
0.0
  0
LINE
  5
F19
  8
0
  6
HIDDEN
 62
     4
 10
86.021246648213605
 20
259.0
 30
0.0
 11
86.32124664821356
 21
258.48038475773001
 31
0.0
  0
LINE
  5
F1A
  8
0
  6
HIDDEN
 62
     4
 10
88.721246648213537
 20
258.0
 30
0.0
 11
86.32124664821356
 21
258.0
 31
0.0
  0
LINE
  5
F1B
  8
0
  6
HIDDEN
 62
     4
 10
86.32124664821356
 20
258.0
 30
0.0
 11
87.521246648213605
 21
257.30717967697001
 31
0.0
  0
LINE
  5
F1C
  8
0
  6
HIDDEN
 62
     4
 10
88.721246648213537
 20
258.0
 30
0.0
 11
87.521246648213605
 21
257.30717967697001
 31
0.0
  0
LINE
  5
F1D
  8
0
  6
HIDDEN
 62
     4
 10
89.021246648213605
 20
259.0
 30
0.0
 11
86.021246648213605
 21
259.0
 31
0.0
  0
LINE
  5
F1E
  8
0
  6
HIDDEN
 62
     4
 10
88.721246648213537
 20
258.0
 30
0.0
 11
88.721246648213537
 21
262.0
 31
0.0
  0
LINE
  5
F1F
  8
0
  6
HIDDEN
 62
     4
 10
86.32124664821356
 20
258.0
 30
0.0
 11
86.32124664821356
 21
262.0
 31
0.0
  0
LINE
  5
F20
  8
0
  6
HIDDEN
 62
     4
 10
89.021246648213605
 20
259.0
 30
0.0
 11
89.021246648213605
 21
262.0
 31
0.0
  0
LINE
  5
F21
  8
0
  6
HIDDEN
 62
     4
 10
86.021246648213605
 20
259.0
 30
0.0
 11
86.021246648213605
 21
262.0
 31
0.0
  0
LINE
  5
F22
  8
0
  6
HIDDEN
 62
     2
 10
85.5
 20
254.20000000000019
 30
0.0
 11
85.5
 21
257.50000000000023
 31
0.0
  0
LINE
  5
F23
  8
0
  6
CENTER
 62
   253
 10
87.521246648213605
 20
263.0
 30
0.0
 11
87.521246648213605
 21
256.30717967697001
 31
0.0
  0
LINE
  5
F24
  8
0
  6
CONTINUOUS
 62
     3
 10
110.0
 20
252.30000000000021
 30
0.0
 11
109.7
 21
252.0000000000002
 31
0.0
  0
LINE
  5
F25
  8
0
  6
HIDDEN
 62
     2
 10
104.2499999999999
 20
254.20000000000019
 30
0.0
 11
104.2499999999999
 21
252.0000000000002
 31
0.0
  0
LINE
  5
F26
  8
0
  6
HIDDEN
 62
     2
 10
100.75
 20
254.20000000000019
 30
0.0
 11
100.75
 21
252.0000000000002
 31
0.0
  0
LINE
  5
F27
  8
0
  6
CENTER
 62
   253
 10
102.4999999999999
 20
251.00000000000011
 30
0.0
 11
102.4999999999999
 21
258.30000000000013
 31
0.0
  0
LINE
  5
F28
  8
0
  6
CONTINUOUS
 62
     3
 10
110.0
 20
257.20000000000022
 30
0.0
 11
109.6999999999999
 21
257.50000000000023
 31
0.0
  0
LINE
  5
F29
  8
0
  6
CONTINUOUS
 62
     3
 10
110.0
 20
255.45000000000019
 30
0.0
 11
98.021246648213037
 21
255.45000000000019
 31
0.0
  0
LINE
  5
F2A
  8
0
  6
CONTINUOUS
 62
     3
 10
110.0
 20
256.15000000000032
 30
0.0
 11
98.021246648213037
 21
256.15000000000032
 31
0.0
  0
LINE
  5
F2B
  8
0
  6
CONTINUOUS
 62
     3
 10
110.0
 20
256.81348045044763
 30
0.0
 11
98.021246648213037
 21
256.81348045044763
 31
0.0
  0
LINE
  5
F2C
  8
0
  6
CONTINUOUS
 62
     3
 10
110.0
 20
254.78651954955279
 30
0.0
 11
98.021246648213037
 21
254.78651954955279
 31
0.0
  0
LINE
  5
F2D
  8
0
  6
CONTINUOUS
 62
     3
 10
97.69969062301584
 20
267.89999999999992
 30
0.0
 11
97.478753351785841
 21
267.89999999999992
 31
0.0
  0
LINE
  5
F2E
  8
0
  6
CONTINUOUS
 62
     3
 10
97.978753351785485
 20
258.00000000000028
 30
0.0
 11
97.695189260803886
 21
258.05000000000041
 31
0.0
  0
LINE
  5
F2F
  8
0
  6
CONTINUOUS
 62
     3
 10
97.699690623015499
 20
258.05000000000041
 30
0.0
 11
97.478753351785485
 21
258.05000000000041
 31
0.0
  0
LINE
  5
F30
  8
0
  6
CONTINUOUS
 62
     3
 10
97.699690623015385
 20
261.2500000000004
 30
0.0
 11
97.478753351785372
 21
261.2500000000004
 31
0.0
  0
ARC
  5
F31
  8
0
  6
CONTINUOUS
 62
     3
 10
95.778753351781575
 20
259.65000000000038
 30
0.0
 40
2.5
 50
320.20818050043778
 51
39.791819499555821
  0
LINE
  5
F32
  8
0
  6
HIDDEN
 62
     2
 10
105.4999999999999
 20
254.20000000000019
 30
0.0
 11
99.500000000000014
 21
254.20000000000019
 31
0.0
  0
LINE
  5
F33
  8
0
  6
HIDDEN
 62
     2
 10
105.4999999999999
 20
254.20000000000019
 30
0.0
 11
105.4999999999999
 21
257.50000000000023
 31
0.0
  0
LINE
  5
F34
  8
0
  6
HIDDEN
 62
     2
 10
99.500000000000014
 20
254.20000000000019
 30
0.0
 11
99.500000000000014
 21
257.50000000000023
 31
0.0
  0
LINE
  5
F35
  8
0
  6
CONTINUOUS
 62
     3
 10
97.478753351785372
 20
261.70000000000027
 30
0.0
 11
97.478753351785599
 21
254.20000000000039
 31
0.0
  0
LINE
  5
F36
  8
0
  6
CONTINUOUS
 62
     3
 10
97.978753351785485
 20
258.00000000000028
 30
0.0
 11
97.978753351785585
 21
254.20000000000039
 31
0.0
  0
LINE
  5
F37
  8
0
  6
CONTINUOUS
 62
     3
 10
98.021246648213037
 20
257.50000000000023
 30
0.0
 11
109.6999999999999
 21
257.50000000000023
 31
0.0
  0
LINE
  5
F38
  8
0
  6
CONTINUOUS
 62
     3
 10
96.478753351785386
 20
261.70000000000027
 30
0.0
 11
96.478753351785613
 21
254.2000000000003
 31
0.0
  0
LINE
  5
F39
  8
0
  6
CONTINUOUS
 62
     3
 10
110.0
 20
257.20000000000022
 30
0.0
 11
110.0
 21
252.30000000000021
 31
0.0
  0
LINE
  5
F3A
  8
0
  6
CONTINUOUS
 62
     3
 10
97.478753351785841
 20
286.74999999999977
 30
0.0
 11
92.47875335178594
 21
286.7500000000004
 31
0.0
  0
CIRCLE
  5
F3B
  8
0
  6
CONTINUOUS
 62
     4
 10
87.521246648214174
 20
284.5
 30
0.0
 40
1.5
  0
CIRCLE
  5
F3C
  8
0
  6
CONTINUOUS
 62
     4
 10
77.52124664821315
 20
284.5
 30
0.0
 40
1.5
  0
LINE
  5
F3D
  8
0
  6
CENTER
 62
   253
 10
87.521246648214174
 20
282.0
 30
0.0
 11
87.521246648214174
 21
287.0
 31
0.0
  0
LINE
  5
F3E
  8
0
  6
CENTER
 62
   253
 10
77.52124664821315
 20
282.0
 30
0.0
 11
77.52124664821315
 21
287.0
 31
0.0
  0
LINE
  5
F3F
  8
0
  6
CONTINUOUS
 62
     3
 10
72.521246648214174
 20
282.30000000000001
 30
0.0
 11
92.521246648213136
 21
282.30000000000001
 31
0.0
  0
LINE
  5
F40
  8
0
  6
CONTINUOUS
 62
     3
 10
72.521246648214174
 20
282.0
 30
0.0
 11
92.521246648213037
 21
282.0
 31
0.0
  0
LINE
  5
F41
  8
0
  6
CONTINUOUS
 62
     3
 10
72.521246648214174
 20
271.69999999999999
 30
0.0
 11
92.521246648213037
 21
271.69999999999999
 31
0.0
  0
LINE
  5
F42
  8
0
  6
CONTINUOUS
 62
     3
 10
72.521246648214174
 20
272.0
 30
0.0
 11
92.521246648213037
 21
272.0
 31
0.0
  0
CIRCLE
  5
F43
  8
0
  6
HIDDEN
 62
     2
 10
82.5
 20
277.00000000000011
 30
0.0
 40
1.75
  0
CIRCLE
  5
F44
  8
0
  6
HIDDEN
 62
     2
 10
82.5
 20
277.00000000000011
 30
0.0
 40
3.0
  0
CIRCLE
  5
F45
  8
0
  6
CONTINUOUS
 62
     4
 10
77.52124664821315
 20
284.5
 30
0.0
 40
1.1999999999999991
  0
LINE
  5
F46
  8
0
  6
CENTER
 62
   253
 10
80.021246648213136
 20
284.5
 30
0.0
 11
75.02124664821315
 21
284.5
 31
0.0
  0
LINE
  5
F47
  8
0
  6
CENTER
 62
   253
 10
80.021246648213136
 20
269.5
 30
0.0
 11
75.02124664821315
 21
269.5
 31
0.0
  0
LINE
  5
F48
  8
0
  6
CENTER
 62
   253
 10
82.5
 20
273.0
 30
0.0
 11
82.5
 21
281.0
 31
0.0
  0
CIRCLE
  5
F49
  8
0
  6
CONTINUOUS
 62
     4
 10
87.521246648214174
 20
284.5
 30
0.0
 40
1.1999999999999991
  0
LINE
  5
F4A
  8
0
  6
CENTER
 62
   253
 10
90.021246648214174
 20
284.5
 30
0.0
 11
85.021246648214174
 21
284.5
 31
0.0
  0
LINE
  5
F4B
  8
0
  6
CENTER
 62
   253
 10
90.021246648214174
 20
269.5
 30
0.0
 11
85.021246648214174
 21
269.5
 31
0.0
  0
LINE
  5
F4C
  8
0
  6
CONTINUOUS
 62
     3
 10
72.721246648214105
 20
287.0
 30
0.0
 11
92.321246648213219
 21
287.0
 31
0.0
  0
LINE
  5
F4D
  8
0
  6
CONTINUOUS
 62
     3
 10
72.721246648214105
 20
287.0
 30
0.0
 11
72.52124664821406
 21
286.7999999999999
 31
0.0
  0
LINE
  5
F4E
  8
0
  6
CONTINUOUS
 62
     3
 10
92.278753351785895
 20
287.0
 30
0.0
 11
92.47875335178594
 21
286.7999999999999
 31
0.0
  0
ARC
  5
F4F
  8
0
  6
CONTINUOUS
 62
     3
 10
95.778753351781674
 20
284.5
 30
0.0
 40
2.5
 50
320.20818050043721
 51
39.791819499554038
  0
LINE
  5
F50
  8
0
  6
CONTINUOUS
 62
     3
 10
109.6999999999999
 20
281.49999999999989
 30
0.0
 11
110.0
 21
281.19999999999987
 31
0.0
  0
LINE
  5
F51
  8
0
  6
CONTINUOUS
 62
     3
 10
110.0
 20
272.80000000000001
 30
0.0
 11
109.6999999999999
 21
272.5
 31
0.0
  0
LINE
  5
F52
  8
0
  6
CONTINUOUS
 62
     3
 10
97.699690623015627
 20
282.89999999999992
 30
0.0
 11
97.478753351785599
 21
282.89999999999992
 31
0.0
  0
LINE
  5
F53
  8
0
  6
CONTINUOUS
 62
     3
 10
97.978753351785826
 20
282.00000000000011
 30
0.0
 11
97.478753351785841
 21
282.08816349035419
 31
0.0
  0
LINE
  5
F54
  8
0
  6
CONTINUOUS
 62
     3
 10
97.978753351785826
 20
271.99999999999977
 30
0.0
 11
97.478753351785841
 21
271.91183650964581
 31
0.0
  0
LINE
  5
F55
  8
0
  6
CONTINUOUS
 62
     3
 10
97.69969062301584
 20
271.10000000000002
 30
0.0
 11
97.478753351785841
 21
271.10000000000002
 31
0.0
  0
LINE
  5
F56
  8
0
  6
CENTER
 62
   253
 10
102.4999999999999
 20
273.0
 30
0.0
 11
102.4999999999999
 21
281.0
 31
0.0
  0
LINE
  5
F57
  8
0
  6
CONTINUOUS
 62
     3
 10
97.978753351785826
 20
271.99999999999977
 30
0.0
 11
97.978753351785826
 21
282.0
 31
0.0
  0
CIRCLE
  5
F58
  8
0
  6
CONTINUOUS
 62
     2
 10
102.4999999999999
 20
277.0
 30
0.0
 40
1.75
  0
CIRCLE
  5
F59
  8
0
  6
CONTINUOUS
 62
     2
 10
102.4999999999999
 20
277.0
 30
0.0
 40
3.0
  0
LINE
  5
F5A
  8
0
  6
CONTINUOUS
 62
     3
 10
109.6999999999999
 20
281.49999999999989
 30
0.0
 11
98.021246648213037
 21
281.49999999999989
 31
0.0
  0
LINE
  5
F5B
  8
0
  6
CONTINUOUS
 62
     3
 10
109.6999999999999
 20
272.5
 30
0.0
 11
98.021246648213037
 21
272.5
 31
0.0
  0
LINE
  5
F5C
  8
0
  6
CONTINUOUS
 62
     3
 10
110.0
 20
272.80000000000001
 30
0.0
 11
110.0
 21
281.19999999999987
 31
0.0
  0
LINE
  5
F5D
  8
0
  6
CONTINUOUS
 62
     3
 10
97.699690623015627
 20
286.10000000000002
 30
0.0
 11
97.478753351785599
 21
286.10000000000002
 31
0.0
  0
ENDSEC
  0
EOF
